  0
SECTION
  2
HEADER
  9
$ACADVER
  1
AC1015
  9
$ACADMAINTVER
 70
    13
  9
$DWGCODEPAGE
  3
ANSI_1252
  9
$INSBASE
 10
0.0
 20
0.0
 30
0.0
  9
$EXTMIN
 10
0.7504917986973711
 20
-0.3422329782262814
 30
0.0
  9
$EXTMAX
 10
30.58468517587369
 20
17.76821019816265
 30
0.0
  9
$LIMMIN
 10
0.0
 20
0.0
  9
$LIMMAX
 10
12.0
 20
9.0
  9
$ORTHOMODE
 70
     0
  9
$REGENMODE
 70
     1
  9
$FILLMODE
 70
     1
  9
$QTEXTMODE
 70
     0
  9
$MIRRTEXT
 70
     1
  9
$LTSCALE
 40
1.0
  9
$ATTMODE
 70
     1
  9
$TEXTSIZE
 40
0.2
  9
$TRACEWID
 40
0.05
  9
$TEXTSTYLE
  7
Standard
  9
$CLAYER
  8
0
  9
$CELTYPE
  6
ByLayer
  9
$CECOLOR
 62
   256
  9
$CELTSCALE
 40
1.0
  9
$DISPSILH
 70
     0
  9
$DIMSCALE
 40
1.0
  9
$DIMASZ
 40
0.18
  9
$DIMEXO
 40
0.0625
  9
$DIMDLI
 40
0.38
  9
$DIMRND
 40
0.0
  9
$DIMDLE
 40
0.0
  9
$DIMEXE
 40
0.18
  9
$DIMTP
 40
0.0
  9
$DIMTM
 40
0.0
  9
$DIMTXT
 40
0.18
  9
$DIMCEN
 40
0.09
  9
$DIMTSZ
 40
0.0
  9
$DIMTOL
 70
     0
  9
$DIMLIM
 70
     0
  9
$DIMTIH
 70
     1
  9
$DIMTOH
 70
     1
  9
$DIMSE1
 70
     0
  9
$DIMSE2
 70
     0
  9
$DIMTAD
 70
     0
  9
$DIMZIN
 70
     0
  9
$DIMBLK
  1

  9
$DIMASO
 70
     1
  9
$DIMSHO
 70
     1
  9
$DIMPOST
  1

  9
$DIMAPOST
  1

  9
$DIMALT
 70
     0
  9
$DIMALTD
 70
     2
  9
$DIMALTF
 40
25.4
  9
$DIMLFAC
 40
1.0
  9
$DIMTOFL
 70
     0
  9
$DIMTVP
 40
0.0
  9
$DIMTIX
 70
     0
  9
$DIMSOXD
 70
     0
  9
$DIMSAH
 70
     0
  9
$DIMBLK1
  1

  9
$DIMBLK2
  1

  9
$DIMSTYLE
  2
Standard
  9
$DIMCLRD
 70
     0
  9
$DIMCLRE
 70
     0
  9
$DIMCLRT
 70
     0
  9
$DIMTFAC
 40
1.0
  9
$DIMGAP
 40
0.09
  9
$DIMJUST
 70
     0
  9
$DIMSD1
 70
     0
  9
$DIMSD2
 70
     0
  9
$DIMTOLJ
 70
     1
  9
$DIMTZIN
 70
     0
  9
$DIMALTZ
 70
     0
  9
$DIMALTTZ
 70
     0
  9
$DIMUPT
 70
     0
  9
$DIMDEC
 70
     4
  9
$DIMTDEC
 70
     4
  9
$DIMALTU
 70
     2
  9
$DIMALTTD
 70
     2
  9
$DIMTXSTY
  7
Standard
  9
$DIMAUNIT
 70
     0
  9
$DIMADEC
 70
     0
  9
$DIMALTRND
 40
0.0
  9
$DIMAZIN
 70
     0
  9
$DIMDSEP
 70
    46
  9
$DIMATFIT
 70
     3
  9
$DIMFRAC
 70
     0
  9
$DIMLDRBLK
  1

  9
$DIMLUNIT
 70
     2
  9
$DIMLWD
 70
    -2
  9
$DIMLWE
 70
    -2
  9
$DIMTMOVE
 70
     0
  9
$LUNITS
 70
     2
  9
$LUPREC
 70
     4
  9
$SKETCHINC
 40
0.1
  9
$FILLETRAD
 40
0.5
  9
$AUNITS
 70
     0
  9
$AUPREC
 70
     0
  9
$MENU
  1
.
  9
$ELEVATION
 40
0.0
  9
$PELEVATION
 40
0.0
  9
$THICKNESS
 40
0.0
  9
$LIMCHECK
 70
     0
  9
$CHAMFERA
 40
0.5
  9
$CHAMFERB
 40
0.5
  9
$CHAMFERC
 40
1.0
  9
$CHAMFERD
 40
0.0
  9
$SKPOLY
 70
     0
  9
$TDCREATE
 40
2453852.359332129
  9
$TDUCREATE
 40
2453852.650998796
  9
$TDUPDATE
 40
2453852.361968194
  9
$TDUUPDATE
 40
2453852.653634861
  9
$TDINDWG
 40
0.0026367940
  9
$TDUSRTIMER
 40
0.0026367940
  9
$USRTIMER
 70
     1
  9
$ANGBASE
 50
0.0
  9
$ANGDIR
 70
     0
  9
$PDMODE
 70
     0
  9
$PDSIZE
 40
0.0
  9
$PLINEWID
 40
0.0
  9
$SPLFRAME
 70
     0
  9
$SPLINETYPE
 70
     6
  9
$SPLINESEGS
 70
     8
  9
$HANDSEED
  5
67
  9
$SURFTAB1
 70
     6
  9
$SURFTAB2
 70
     6
  9
$SURFTYPE
 70
     6
  9
$SURFU
 70
     6
  9
$SURFV
 70
     6
  9
$UCSBASE
  2

  9
$UCSNAME
  2

  9
$UCSORG
 10
0.0
 20
0.0
 30
0.0
  9
$UCSXDIR
 10
1.0
 20
0.0
 30
0.0
  9
$UCSYDIR
 10
0.0
 20
1.0
 30
0.0
  9
$UCSORTHOREF
  2

  9
$UCSORTHOVIEW
 70
     0
  9
$UCSORGTOP
 10
0.0
 20
0.0
 30
0.0
  9
$UCSORGBOTTOM
 10
0.0
 20
0.0
 30
0.0
  9
$UCSORGLEFT
 10
0.0
 20
0.0
 30
0.0
  9
$UCSORGRIGHT
 10
0.0
 20
0.0
 30
0.0
  9
$UCSORGFRONT
 10
0.0
 20
0.0
 30
0.0
  9
$UCSORGBACK
 10
0.0
 20
0.0
 30
0.0
  9
$PUCSBASE
  2

  9
$PUCSNAME
  2

  9
$PUCSORG
 10
0.0
 20
0.0
 30
0.0
  9
$PUCSXDIR
 10
1.0
 20
0.0
 30
0.0
  9
$PUCSYDIR
 10
0.0
 20
1.0
 30
0.0
  9
$PUCSORTHOREF
  2

  9
$PUCSORTHOVIEW
 70
     0
  9
$PUCSORGTOP
 10
0.0
 20
0.0
 30
0.0
  9
$PUCSORGBOTTOM
 10
0.0
 20
0.0
 30
0.0
  9
$PUCSORGLEFT
 10
0.0
 20
0.0
 30
0.0
  9
$PUCSORGRIGHT
 10
0.0
 20
0.0
 30
0.0
  9
$PUCSORGFRONT
 10
0.0
 20
0.0
 30
0.0
  9
$PUCSORGBACK
 10
0.0
 20
0.0
 30
0.0
  9
$USERI1
 70
     0
  9
$USERI2
 70
     0
  9
$USERI3
 70
     0
  9
$USERI4
 70
     0
  9
$USERI5
 70
     0
  9
$USERR1
 40
0.0
  9
$USERR2
 40
0.0
  9
$USERR3
 40
0.0
  9
$USERR4
 40
0.0
  9
$USERR5
 40
0.0
  9
$WORLDVIEW
 70
     1
  9
$SHADEDGE
 70
     3
  9
$SHADEDIF
 70
    70
  9
$TILEMODE
 70
     1
  9
$MAXACTVP
 70
    64
  9
$PINSBASE
 10
0.0
 20
0.0
 30
0.0
  9
$PLIMCHECK
 70
     0
  9
$PEXTMIN
 10
1.000000000000000E+20
 20
1.000000000000000E+20
 30
1.000000000000000E+20
  9
$PEXTMAX
 10
-1.000000000000000E+20
 20
-1.000000000000000E+20
 30
-1.000000000000000E+20
  9
$PLIMMIN
 10
0.0
 20
0.0
  9
$PLIMMAX
 10
12.0
 20
9.0
  9
$UNITMODE
 70
     0
  9
$VISRETAIN
 70
     1
  9
$PLINEGEN
 70
     0
  9
$PSLTSCALE
 70
     1
  9
$TREEDEPTH
 70
  3020
  9
$CMLSTYLE
  2
Standard
  9
$CMLJUST
 70
     0
  9
$CMLSCALE
 40
1.0
  9
$PROXYGRAPHICS
 70
     1
  9
$MEASUREMENT
 70
     0
  9
$CELWEIGHT
370
    -1
  9
$ENDCAPS
280
     0
  9
$JOINSTYLE
280
     0
  9
$LWDISPLAY
290
     0
  9
$INSUNITS
 70
     1
  9
$HYPERLINKBASE
  1

  9
$STYLESHEET
  1

  9
$XEDIT
290
     1
  9
$CEPSNTYPE
380
     0
  9
$PSTYLEMODE
290
     1
  9
$FINGERPRINTGUID
  2
{5787DAF7-CBA9-4F4E-A008-9AEEEA0576AE}
  9
$VERSIONGUID
  2
{AAEFC4F5-BA7D-4C64-8533-48B09BDEB538}
  9
$EXTNAMES
290
     1
  9
$PSVPSCALE
 40
0.0
  9
$OLESTARTUP
290
     0
  0
ENDSEC
  0
SECTION
  2
CLASSES
  0
CLASS
  1
ACDBDICTIONARYWDFLT
  2
AcDbDictionaryWithDefault
  3
AutoCAD 2000
 90
        0
280
     0
281
     0
  0
CLASS
  1
ACDBPLACEHOLDER
  2
AcDbPlaceHolder
  3
AutoCAD 2000
 90
        0
280
     0
281
     0
  0
CLASS
  1
LAYOUT
  2
AcDbLayout
  3
AutoCAD 2000
 90
        0
280
     0
281
     0
  0
CLASS
  1
DICTIONARYVAR
  2
AcDbDictionaryVar
  3
AutoCAD 2000
 90
        0
280
     0
281
     0
  0
ENDSEC
  0
SECTION
  2
TABLES
  0
TABLE
  2
VPORT
  5
8
330
0
100
AcDbSymbolTable
 70
     3
  0
VPORT
  5
66
330
8
100
AcDbSymbolTableRecord
100
AcDbViewportTableRecord
  2
*Active
 70
     0
 10
0.0
 20
0.0
 11
1.0
 21
1.0
 12
19.31135848093182
 22
7.710993156033572
 13
0.0
 23
0.0
 14
0.5
 24
0.5
 15
0.5
 25
0.5
 16
0.0
 26
0.0
 36
1.0
 17
0.0
 27
0.0
 37
0.0
 40
23.23660194476758
 41
1.680713128038897
 42
50.0
 43
0.0
 44
0.0
 50
0.0
 51
0.0
 71
     0
 72
   100
 73
     1
 74
     3
 75
     0
 76
     0
 77
     0
 78
     0
281
     0
 65
     1
110
0.0
120
0.0
130
0.0
111
1.0
121
0.0
131
0.0
112
0.0
122
1.0
132
0.0
 79
     0
146
0.0
  0
ENDTAB
  0
TABLE
  2
LTYPE
  5
5
330
0
100
AcDbSymbolTable
 70
     1
  0
LTYPE
  5
14
330
5
100
AcDbSymbolTableRecord
100
AcDbLinetypeTableRecord
  2
ByBlock
 70
     0
  3

 72
    65
 73
     0
 40
0.0
  0
LTYPE
  5
15
330
5
100
AcDbSymbolTableRecord
100
AcDbLinetypeTableRecord
  2
ByLayer
 70
     0
  3

 72
    65
 73
     0
 40
0.0
  0
LTYPE
  5
16
330
5
100
AcDbSymbolTableRecord
100
AcDbLinetypeTableRecord
  2
Continuous
 70
     0
  3
Solid line
 72
    65
 73
     0
 40
0.0
  0
ENDTAB
  0
TABLE
  2
LAYER
  5
2
330
0
100
AcDbSymbolTable
 70
     1
  0
LAYER
  5
10
330
2
100
AcDbSymbolTableRecord
100
AcDbLayerTableRecord
  2
0
 70
     0
 62
     7
  6
Continuous
370
    -3
390
F
  0
ENDTAB
  0
TABLE
  2
STYLE
  5
3
330
0
100
AcDbSymbolTable
 70
     1
  0
STYLE
  5
11
330
3
100
AcDbSymbolTableRecord
100
AcDbTextStyleTableRecord
  2
Standard
 70
     0
 40
0.0
 41
1.0
 50
0.0
 71
     0
 42
0.2
  3
txt
  4

  0
ENDTAB
  0
TABLE
  2
VIEW
  5
6
330
0
100
AcDbSymbolTable
 70
     0
  0
ENDTAB
  0
TABLE
  2
UCS
  5
7
330
0
100
AcDbSymbolTable
 70
     0
  0
ENDTAB
  0
TABLE
  2
APPID
  5
9
330
0
100
AcDbSymbolTable
 70
     1
  0
APPID
  5
12
330
9
100
AcDbSymbolTableRecord
100
AcDbRegAppTableRecord
  2
ACAD
 70
     0
  0
ENDTAB
  0
TABLE
  2
DIMSTYLE
  5
A
330
0
100
AcDbSymbolTable
 70
     1
100
AcDbDimStyleTable
 71
     0
  0
DIMSTYLE
105
27
330
A
100
AcDbSymbolTableRecord
100
AcDbDimStyleTableRecord
  2
Standard
 70
     0
340
11
  0
ENDTAB
  0
TABLE
  2
BLOCK_RECORD
  5
1
330
0
100
AcDbSymbolTable
 70
     3
  0
BLOCK_RECORD
  5
1F
330
1
100
AcDbSymbolTableRecord
100
AcDbBlockTableRecord
  2
*Model_Space
340
22
  0
BLOCK_RECORD
  5
1B
330
1
100
AcDbSymbolTableRecord
100
AcDbBlockTableRecord
  2
*Paper_Space
340
1E
  0
BLOCK_RECORD
  5
23
330
1
100
AcDbSymbolTableRecord
100
AcDbBlockTableRecord
  2
*Paper_Space0
340
26
  0
BLOCK_RECORD
  5
2B
330
1
100
AcDbSymbolTableRecord
100
AcDbBlockTableRecord
  2
A$C3C0E71A4
340
0
  0
ENDTAB
  0
ENDSEC
  0
SECTION
  2
BLOCKS
  0
BLOCK
  5
20
330
1F
100
AcDbEntity
  8
0
100
AcDbBlockBegin
  2
*Model_Space
 70
     0
 10
0.0
 20
0.0
 30
0.0
  3
*Model_Space
  1

  0
ENDBLK
  5
21
330
1F
100
AcDbEntity
  8
0
100
AcDbBlockEnd
  0
BLOCK
  5
1C
330
1B
100
AcDbEntity
 67
     1
  8
0
100
AcDbBlockBegin
  2
*Paper_Space
 70
     0
 10
0.0
 20
0.0
 30
0.0
  3
*Paper_Space
  1

  0
ENDBLK
  5
1D
330
1B
100
AcDbEntity
 67
     1
  8
0
100
AcDbBlockEnd
  0
BLOCK
  5
24
330
23
100
AcDbEntity
  8
0
100
AcDbBlockBegin
  2
*Paper_Space0
 70
     0
 10
0.0
 20
0.0
 30
0.0
  3
*Paper_Space0
  1

  0
ENDBLK
  5
25
330
23
100
AcDbEntity
  8
0
100
AcDbBlockEnd
  0
BLOCK
  5
37
330
2B
100
AcDbEntity
  8
0
100
AcDbBlockBegin
  2
A$C3C0E71A4
 70
     0
 10
0.0
 20
0.0
 30
0.0
  3
A$C3C0E71A4
  1

  0
SPLINE
  5
2C
330
2B
100
AcDbEntity
  8
0
100
AcDbSpline
210
0.0
220
0.0
230
1.0
 70
    11
 71
     3
 72
   114
 73
   110
 74
   108
 42
0.0000000001
 43
0.0000000001
 44
0.0000000001
 40
0.0
 40
0.0
 40
0.0
 40
0.0
 40
0.8291617871156544
 40
2.66113400127913
 40
4.098325765427914
 40
4.584668853650604
 40
4.689771334416347
 40
5.467325091666544
 40
5.969604371293216
 40
6.07194024129168
 40
6.151356896476367
 40
6.264385483595379
 40
6.348615402975132
 40
6.424503349800655
 40
6.535759138607158
 40
6.637017017052615
 40
6.738290252463326
 40
6.84629934896516
 40
6.947529575514721
 40
7.027964070010299
 40
7.097318854826327
 40
7.145149594690467
 40
7.287200390079853
 40
7.367634884575425
 40
7.471557240116704
 40
7.551500223691217
 40
7.595898987354365
 40
7.65276414762495
 40
7.785936768302502
 40
7.845516866380641
 40
7.934326656429381
 40
8.038249011970663
 40
8.173487688054832
 40
8.337227350944511
 40
8.969336358923873
 40
9.653186623108
 40
10.11186846388142
 40
10.54728706620557
 40
11.1990227304127
 40
11.87491676638994
 40
12.28649438259786
 40
12.86087270854629
 40
13.70105236869648
 40
14.5555742949702
 40
15.14033943410479
 40
15.63272628203676
 40
16.07263766261674
 40
16.32338635266242
 40
16.6804337833818
 40
16.87126631573403
 40
16.99367760098341
 40
17.07876354873029
 40
17.23955555250959
 40
17.3569463345531
 40
17.46019897266428
 40
17.57233544329921
 40
17.69474671653582
 40
17.83443886491392
 40
17.94877663261309
 40
18.1997256440441
 40
18.33612442717161
 40
18.43637446185802
 40
18.64084909555632
 40
18.828138227368
 40
19.10397704024168
 40
19.40622863076006
 40
19.57157000620365
 40
19.74695884902487
 40
20.06161336392114
 40
20.41618518565459
 40
20.69720259533776
 40
20.77806601604705
 40
21.08699504378352
 40
21.35610027461662
 40
21.65770452649451
 40
22.3361889790232
 40
23.05497358210701
 40
23.30622784517419
 40
23.47694778048898
 40
23.62598847466126
 40
23.80677852260614
 40
23.95585117062309
 40
24.18446421953218
 40
24.39630507869738
 40
24.70561525789038
 40
24.89844287545148
 40
25.29595639646387
 40
25.48438544252503
 40
25.68470164206577
 40
25.88846114021843
 40
26.05681823223199
 40
26.40954905105812
 40
27.01076341446755
 40
27.3572522301138
 40
27.57705093357695
 40
28.4827194803702
 40
29.70532888519588
 40
31.14296527919151
 40
31.55064160100241
 40
31.70461643237819
 40
31.90231636811157
 40
32.0695176686027
 40
32.75140412048363
 40
33.15928125179225
 40
33.45461475272566
 40
34.01141121025232
 40
34.46949661264825
 40
34.7884253924239
 40
35.00395153896306
 40
35.00395153896306
 40
35.00395153896306
 40
35.00395153896306
 10
1.557674237255242
 20
0.2067809058575472
 30
0.0
 10
1.545506414778463
 20
0.4802859541382092
 30
0.0
 10
1.50645468010178
 20
1.358080366291501
 30
0.0
 10
1.751277109944768
 20
2.844251244586816
 30
0.0
 10
1.370740589567549
 20
3.763539269481212
 30
0.0
 10
1.602424618925574
 20
4.833648715773498
 30
0.0
 10
1.101640460093506
 20
4.695537426536697
 30
0.0
 10
0.8939640617279733
 20
4.865980644693539
 30
0.0
 10
-0.1322831548136429
 20
4.64495982962495
 30
0.0
 10
0.1809998154128754
 20
4.782515223160446
 30
0.0
 10
0.1115853922958498
 20
4.885343833879952
 30
0.0
 10
0.0169554356323802
 20
4.923125556320198
 30
0.0
 10
0.0456703747890135
 20
5.042698183213111
 30
0.0
 10
0.1732068561512126
 20
5.039734211412716
 30
0.0
 10
0.0949572206425509
 20
5.158262178603836
 30
0.0
 10
-0.0535699141690951
 20
5.224689533207716
 30
0.0
 10
0.1312820543150255
 20
5.218198187976455
 30
0.0
 10
0.1321855038193349
 20
5.346073782573699
 30
0.0
 10
0.0488766915045402
 20
5.45091395033971
 30
0.0
 10
0.1834517492178471
 20
5.476362980802285
 30
0.0
 10
0.1974883192351591
 20
5.38263315532394
 30
0.0
 10
0.3087371775672758
 20
5.429747468832335
 30
0.0
 10
0.1964733453807299
 20
5.579506123625796
 30
0.0
 10
0.3749054337993432
 20
5.564260709777983
 30
0.0
 10
0.3386835640382149
 20
5.438372479120532
 30
0.0
 10
0.4558715828228346
 20
5.429408712355163
 30
0.0
 10
0.4763652697826979
 20
5.509052972846607
 30
0.0
 10
0.5659576289243225
 20
5.426154712273637
 30
0.0
 10
0.482526580728004
 20
5.330320487682668
 30
0.0
 10
0.5924599349902158
 20
5.275415203354007
 30
0.0
 10
0.6577881275600675
 20
5.349611020341346
 30
0.0
 10
0.7033267675534343
 20
5.45340105175666
 30
0.0
 10
0.6300170802943095
 20
5.583159157169252
 30
0.0
 10
0.3996216906174457
 20
5.792581491136122
 30
0.0
 10
0.43261895394765
 20
6.349302537786041
 30
0.0
 10
0.3416648740499948
 20
6.923295493664944
 30
0.0
 10
0.4968919144681077
 20
7.438681133961637
 30
0.0
 10
0.6992841733260682
 20
7.911081961005315
 30
0.0
 10
0.7974941542268406
 20
8.49790793280802
 30
0.0
 10
1.004486806562789
 20
9.033394480488691
 30
0.0
 10
1.286052952235936
 20
9.539851252185895
 30
0.0
 10
1.907324530476239
 20
9.714488012010189
 30
0.0
 10
2.606059009447147
 20
9.988291732144713
 30
0.0
 10
3.198720576041406
 20
10.4777149104828
 30
0.0
 10
3.719551854532859
 20
10.85952469843666
 30
0.0
 10
4.275680818764827
 20
10.92020148202947
 30
0.0
 10
4.581024779253548
 20
10.67412532803118
 30
0.0
 10
4.993737785899483
 20
10.61540982897457
 30
0.0
 10
5.051935376585857
 20
11.00291277307685
 30
0.0
 10
5.317593617004639
 20
10.96660709434044
 30
0.0
 10
5.424652243061402
 20
10.89409060967946
 30
0.0
 10
5.500668451459805
 20
10.77891412415022
 30
0.0
 10
5.641255392949053
 20
10.85183070796728
 30
0.0
 10
5.759271273097862
 20
10.7937401977901
 30
0.0
 10
5.849035744427142
 20
10.72199260557645
 30
0.0
 10
5.972904912753769
 20
10.74197924932199
 30
0.0
 10
6.058693092100138
 20
10.87711436785631
 30
0.0
 10
6.193286475384422
 20
10.72897829201036
 30
0.0
 10
6.308788644274585
 20
10.9155305845638
 30
0.0
 10
6.496207473092288
 20
10.8586397080376
 30
0.0
 10
6.661789731837833
 20
10.77967862207795
 30
0.0
 10
6.641792845060635
 20
10.61697109759196
 30
0.0
 10
6.579010769750579
 20
10.46374750613418
 30
0.0
 10
6.661887209327019
 20
10.2459110255497
 30
0.0
 10
6.786606553788629
 20
10.01186901391094
 30
0.0
 10
6.691986478580425
 20
9.760601827047583
 30
0.0
 10
6.739989960644237
 20
9.545356020263268
 30
0.0
 10
6.910579641985306
 20
9.373648094661804
 30
0.0
 10
6.727749350066112
 20
9.072272506305512
 30
0.0
 10
6.442753312756863
 20
8.906254778838235
 30
0.0
 10
6.200429099672572
 20
8.960840400018639
 30
0.0
 10
5.972145002528936
 20
8.941148165081607
 30
0.0
 10
5.837426630223072
 20
8.73285364958442
 30
0.0
 10
5.508422377068797
 20
8.680236307192293
 30
0.0
 10
5.434903780753872
 20
8.21273302102006
 30
0.0
 10
5.209646870861069
 20
7.719790758518044
 30
0.0
 10
5.064075957082688
 20
7.183905025297956
 30
0.0
 10
4.804743349718932
 20
6.869638040435214
 30
0.0
 10
4.835043377281659
 20
6.675421390981927
 30
0.0
 10
4.873794097343627
 20
6.501377549288525
 30
0.0
 10
5.03336951748065
 20
6.438609011395279
 30
0.0
 10
5.19169692187931
 20
6.322039891607033
 30
0.0
 10
5.160390025566687
 20
6.077401601198813
 30
0.0
 10
5.436645423309803
 20
5.990675974566881
 30
0.0
 10
5.645199032539865
 20
5.909330941188127
 30
0.0
 10
5.898886105042755
 20
5.719574996601775
 30
0.0
 10
5.912746879228466
 20
5.435540667196657
 30
0.0
 10
6.054927211125015
 20
5.207722714948798
 30
0.0
 10
6.224266435781412
 20
5.09997653196322
 30
0.0
 10
6.24369729898326
 20
4.84173798223254
 30
0.0
 10
5.965380011611909
 20
4.802775630626303
 30
0.0
 10
5.607504003695762
 20
4.75930229449705
 30
0.0
 10
5.211591409624946
 20
4.814773336230522
 30
0.0
 10
4.716339156108245
 20
4.827425502058524
 30
0.0
 10
4.689065944345919
 20
4.265605168025496
 30
0.0
 10
4.728932608692414
 20
3.539712848886551
 30
0.0
 10
4.706873157715673
 20
2.319021609309366
 30
0.0
 10
4.661112789241606
 20
1.32186923556333
 30
0.0
 10
4.734017410795583
 20
0.6320769482604998
 30
0.0
 10
4.630075325453672
 20
0.4025441785115874
 30
0.0
 10
4.640711926016441
 20
0.2016207513734272
 30
0.0
 10
4.271560915954494
 20
0.0678006258550543
 30
0.0
 10
3.869168052262825
 20
0.0887294563907073
 30
0.0
 10
3.403529979068236
 20
0.0743393616190262
 30
0.0
 10
2.986267751119179
 20
0.0466809947869899
 30
0.0
 10
2.54680717613394
 20
-0.0412866816305264
 30
0.0
 10
2.115882772240176
 20
0.0893519237084409
 30
0.0
 10
1.771397280007848
 20
0.0669490735408767
 30
0.0
 10
1.619092992339028
 20
0.1665966704500628
 30
0.0
 10
1.557674237255242
 20
0.2067809058575472
 30
0.0
 11
1.557674237255242
 21
0.2067809058575472
 31
0.0
 11
1.540395265607945
 21
1.03576263445694
 31
0.0
 11
1.609511152197117
 21
2.866430596619391
 31
0.0
 11
1.505837322313363
 21
4.299878155455894
 31
0.0
 11
1.454000407371485
 21
4.783450832218437
 31
0.0
 11
1.350326577487729
 21
4.766180381722068
 31
0.0
 11
0.5727728202375327
 21
4.766180381722068
 31
0.0
 11
0.0716826093440193
 21
4.73163945977458
 31
0.0
 11
0.1515386144500077
 21
4.795636715472422
 31
0.0
 11
0.1160083737664137
 21
4.866662113167116
 31
0.0
 11
0.0360653901919026
 21
4.946565685573645
 31
0.0
 11
0.0627130624240855
 21
5.026469257980177
 31
0.0
 11
0.1337734775471926
 21
5.053103782115687
 31
0.0
 11
0.0804781662048648
 21
5.150763703945891
 31
0.0
 11
0.000535182630355
 21
5.212910926928746
 31
0.0
 11
0.0982432699856406
 21
5.239545451064259
 31
0.0
 11
0.1160083737664137
 21
5.346083547606297
 31
0.0
 11
0.0893607015342304
 21
5.443743469436501
 31
0.0
 11
0.1693037182307826
 21
5.452621644148339
 31
0.0
 11
0.2137164942437386
 21
5.399352595877317
 31
0.0
 11
0.2581292371346637
 21
5.417108945300991
 31
0.0
 11
0.2581292371346637
 21
5.559159740690377
 31
0.0
 11
0.3380722538312106
 21
5.550281565978542
 31
0.0
 11
0.3736024613927626
 21
5.452621644148339
 31
0.0
 11
0.4535454449672756
 21
5.452621644148339
 31
0.0
 11
0.4801931171994589
 21
5.488134342995683
 31
0.0
 11
0.5246058932124167
 21
5.452621644148339
 31
0.0
 11
0.5246058932124167
 21
5.319449023470787
 31
0.0
 11
0.5779012045547436
 21
5.292814499335277
 31
0.0
 11
0.6489616527998887
 21
5.346083547606297
 31
0.0
 11
0.684491860361439
 21
5.443743469436501
 31
0.0
 11
0.6311965490191121
 21
5.568037915402213
 31
0.0
 11
0.5246058932124167
 21
5.692332361367929
 31
0.0
 11
0.4091326689543169
 21
6.313804591196497
 31
0.0
 11
0.3913675651735415
 21
6.997424064962683
 31
0.0
 11
0.5068407894316423
 21
7.441332800554514
 31
0.0
 11
0.6578442212512941
 21
7.849728837299002
 31
0.0
 11
0.8164039820485658
 21
8.481882440670382
 31
0.0
 11
1.057122756289578
 21
9.113457629858103
 31
0.0
 11
1.287811581603882
 21
9.454307743600935
 31
0.0
 11
1.809368925792746
 21
9.694907822657397
 31
0.0
 11
2.581674960027294
 21
10.02573292874064
 31
0.0
 11
3.273741435970212
 21
10.52698308121792
 31
0.0
 11
3.775238849183616
 21
10.82773316432241
 31
0.0
 11
4.266706346592358
 21
10.85780818730117
 31
0.0
 11
4.667904303660713
 21
10.67735813324753
 31
0.0
 11
4.918652993706397
 21
10.67735813324753
 31
0.0
 11
5.139311870094001
 21
10.95805820103283
 31
0.0
 11
5.329880899701465
 21
10.94803321432799
 31
0.0
 11
5.430180388968555
 21
10.87785818166561
 31
0.0
 11
5.490360082528813
 21
10.81770817761758
 31
0.0
 11
5.65083926535615
 21
10.82773316432241
 31
0.0
 11
5.761168703549952
 21
10.78763315463878
 31
0.0
 11
5.851438243890331
 21
10.73750813729559
 31
0.0
 11
5.961767682084131
 21
10.75755815261476
 31
0.0
 11
6.062067171351218
 21
10.82773316432241
 31
0.0
 11
6.192456507398436
 21
10.77760814697921
 31
0.0
 11
6.282726047738815
 21
10.84778317964158
 31
0.0
 11
6.533474737784498
 21
10.837758171982
 31
0.0
 11
6.643804175978299
 21
10.75755815261476
 31
0.0
 11
6.643804175978299
 21
10.65730811792835
 31
0.0
 11
6.603684380271463
 21
10.45680804855555
 31
0.0
 11
6.653834124905007
 21
10.27635799450191
 31
0.0
 11
6.744103665245388
 21
10.01570792108105
 31
0.0
 11
6.714013818465263
 21
9.714957817021815
 31
0.0
 11
6.754133614172099
 21
9.554557778287344
 31
0.0
 11
6.844403154512477
 21
9.404182726257754
 31
0.0
 11
6.724043767391972
 21
9.113457629858103
 31
0.0
 11
6.413115350663995
 21
8.943032583464066
 31
0.0
 11
6.132276813838178
 21
8.953057591123659
 31
0.0
 11
6.052037222424512
 21
8.943032583464066
 31
0.0
 11
5.801288499256788
 21
8.76258252941043
 31
0.0
 11
5.560569725015769
 21
8.64228250035959
 31
0.0
 11
5.450240286821976
 21
8.361582411619542
 31
0.0
 11
5.229581410434378
 21
7.719982214772223
 31
0.0
 11
4.948742840486528
 21
7.058332002605716
 31
0.0
 11
4.828383486488061
 21
6.837781938868462
 31
0.0
 11
4.838413435414768
 21
6.667356892474415
 31
0.0
 11
4.888563146926277
 21
6.527006848104395
 31
0.0
 11
5.039012380826907
 21
6.426756813417982
 31
0.0
 11
5.149341819020707
 21
6.326506778731573
 31
0.0
 11
5.209521512580956
 21
6.105956714994322
 31
0.0
 11
5.39415719301191
 21
6.002100010234117
 31
0.0
 11
5.677296088412543
 21
5.877580321575211
 31
0.0
 11
5.82452834449314
 21
5.753060632916312
 31
0.0
 11
5.96043501693521
 21
5.379501566939607
 31
0.0
 11
6.062365004705736
 21
5.221021968906852
 31
0.0
 11
6.198271677147804
 21
5.073862340665383
 31
0.0
 11
6.198271677147804
 21
4.870102842512721
 31
0.0
 11
6.039713903672737
 21
4.813502993556292
 31
0.0
 11
5.68862167205108
 21
4.779543084182433
 31
0.0
 11
5.088367196578285
 21
4.813502993556292
 31
0.0
 11
4.748600515473115
 21
4.745583174808578
 31
0.0
 11
4.703298280285082
 21
4.530503706864635
 31
0.0
 11
4.714623830801587
 21
3.624905976878473
 31
0.0
 11
4.703298280285082
 21
2.402349029872037
 31
0.0
 11
4.703298280285082
 21
0.9647126358764142
 31
0.0
 11
4.691972729768587
 21
0.5571936605258552
 31
0.0
 11
4.64667049458055
 21
0.4100340322843844
 31
0.0
 11
4.601368259392518
 21
0.2175945039230094
 31
0.0
 11
4.454136036433952
 21
0.1383546944292522
 31
0.0
 11
3.774602674223623
 21
0.0817548454728243
 31
0.0
 11
3.366882656897433
 21
0.0704348756815383
 31
0.0
 11
3.072418210980301
 21
0.0477949360989667
 31
0.0
 11
2.517465937573508
 21
0.0025150359790658
 31
0.0
 11
2.064443718181313
 21
0.0704348756815383
 31
0.0
 11
1.747328138109147
 21
0.1043947850553952
 31
0.0
 11
1.557674237255242
 21
0.2067809058575472
 31
0.0
  0
CIRCLE
  5
2D
330
2B
100
AcDbEntity
  8
0
100
AcDbCircle
 10
3.106768849483933
 20
1.295235105461243
 30
0.0
 40
0.09375
  0
LINE
  5
2E
330
2B
100
AcDbEntity
  8
0
100
AcDbLine
 10
3.325518849483933
 20
1.982735105461242
 30
0.0
 11
3.325518849483933
 21
2.482735105461242
 31
0.0
  0
LINE
  5
2F
330
2B
100
AcDbEntity
  8
0
100
AcDbLine
 10
2.888018849483933
 20
2.482735105461242
 30
0.0
 11
2.888018849483933
 21
1.982735105461242
 31
0.0
  0
LINE
  5
30
330
2B
100
AcDbEntity
  8
0
100
AcDbLine
 10
3.325518849483933
 20
1.982735105461242
 30
0.0
 11
2.888018849483933
 21
1.982735105461242
 31
0.0
  0
LINE
  5
31
330
2B
100
AcDbEntity
  8
0
100
AcDbLine
 10
3.325518849483933
 20
2.982735105461242
 30
0.0
 11
3.325518849483933
 21
2.482735105461242
 31
0.0
  0
LINE
  5
32
330
2B
100
AcDbEntity
  8
0
100
AcDbLine
 10
2.888018849483933
 20
2.482735105461242
 30
0.0
 11
2.888018849483933
 21
2.982735105461242
 31
0.0
  0
LINE
  5
33
330
2B
100
AcDbEntity
  8
0
100
AcDbLine
 10
3.325518849483933
 20
2.982735105461242
 30
0.0
 11
2.888018849483933
 21
2.982735105461242
 31
0.0
  0
CIRCLE
  5
34
330
2B
100
AcDbEntity
  8
0
100
AcDbCircle
 10
3.106768849483933
 20
3.670235105461243
 30
0.0
 40
0.09375
  0
SPLINE
  5
35
330
2B
100
AcDbEntity
  8
0
100
AcDbSpline
210
0.0
220
0.0
230
1.0
 70
    11
 71
     3
 72
    26
 73
    22
 74
    20
 42
0.0000000001
 43
0.0000000001
 44
0.0000000001
 40
0.0
 40
0.0
 40
0.0
 40
0.0
 40
0.2190067329813623
 40
0.4201802956792282
 40
0.729894002112534
 40
1.051025486652085
 40
1.483950607657017
 40
1.769289363512323
 40
2.029278458634649
 40
2.243648884377701
 40
2.66068244811324
 40
3.016402411737249
 40
3.232618529686351
 40
3.460277233438082
 40
3.786682368565506
 40
4.066145714019985
 40
4.246392373763827
 40
4.497294821502114
 40
4.713553830341756
 40
4.949229608876316
 40
5.144483078044427
 40
5.144483078044427
 40
5.144483078044427
 40
5.144483078044427
 10
1.447814999495246
 20
5.522893739249544
 30
0.0
 10
1.405967727484069
 20
5.587868171188985
 30
0.0
 10
1.325680702114298
 20
5.712526329649468
 30
0.0
 10
1.401874635589273
 20
5.954062289389399
 30
0.0
 10
1.447364688455508
 20
6.254741872297758
 30
0.0
 10
1.834208281118857
 20
6.363129459690118
 30
0.0
 10
2.004154350194281
 20
6.692426113391857
 30
0.0
 10
2.065026189568293
 20
7.021482012470432
 30
0.0
 10
2.432414919387838
 20
7.121660873275558
 30
0.0
 10
2.427819638217306
 20
6.74423159158264
 30
0.0
 10
2.624615323080381
 20
6.494368270363246
 30
0.0
 10
2.793160563147289
 20
6.202813973237722
 30
0.0
 10
3.071273340985219
 20
6.086210051205605
 30
0.0
 10
3.01611635748029
 20
5.749784679263475
 30
0.0
 10
2.693320554456794
 20
5.729512317810824
 30
0.0
 10
2.451934895391883
 20
5.644868640871997
 30
0.0
 10
2.244778489345601
 20
5.531516222939136
 30
0.0
 10
2.069938028528885
 20
5.37890368975745
 30
0.0
 10
1.829924325328291
 20
5.415133086994646
 30
0.0
 10
1.598691645005811
 20
5.357821726985163
 30
0.0
 10
1.494860674277842
 20
5.471421729261391
 30
0.0
 10
1.447814999495246
 20
5.522893739249544
 30
0.0
 11
1.447814999495246
 21
5.522893739249544
 31
0.0
 11
1.356001111069028
 21
5.721725726070648
 31
0.0
 11
1.386605740544434
 21
5.920557712891746
 31
0.0
 11
1.493721943708353
 21
6.211158296119656
 31
0.0
 11
1.7661816651398
 21
6.381132207529834
 31
0.0
 11
2.001857443674364
 21
6.744286565632917
 31
0.0
 11
2.129515172228182
 21
6.99947612249905
 31
0.0
 11
2.38483062933583
 21
7.048551034057186
 31
0.0
 11
2.44374956568896
 21
6.842436409703957
 31
0.0
 11
2.630326230595915
 21
6.469467052525432
 31
0.0
 11
2.856182219526991
 21
6.194647539417952
 31
0.0
 11
3.023119238982897
 21
6.057237782864212
 31
0.0
 11
2.993659770806332
 21
5.831493181314867
 31
0.0
 11
2.689245200071083
 21
5.713713381002477
 31
0.0
 11
2.424109920237916
 21
5.625378536006876
 31
0.0
 11
2.266992723507529
 21
5.537043691011273
 31
0.0
 11
2.050956590424008
 21
5.409448912578207
 31
0.0
 11
1.834920424218451
 21
5.399633934457533
 31
0.0
 11
1.599244645683891
 21
5.399633934457533
 31
0.0
 11
1.447814999495246
 21
5.522893739249544
 31
0.0
  0
SPLINE
  5
36
330
2B
100
AcDbEntity
  8
0
100
AcDbSpline
210
0.0
220
0.0
230
1.0
 70
    11
 71
     3
 72
    19
 73
    15
 74
    13
 42
0.0000000001
 43
0.0000000001
 44
0.0000000001
 40
0.0
 40
0.0
 40
0.0
 40
0.0
 40
0.2918367062686808
 40
0.5570231170855513
 40
0.8529426375726156
 40
1.068251689364437
 40
1.267059061701863
 40
1.355437499353597
 40
1.457913126250586
 40
1.694290010162187
 40
2.079084383879137
 40
2.463878736750783
 40
2.637562931579739
 40
2.787402439916047
 40
2.787402439916047
 40
2.787402439916047
 40
2.787402439916047
 10
3.779245754458276
 20
7.313555569043991
 30
0.0
 10
3.738070838350592
 20
7.223017407369674
 30
0.0
 10
3.659481066661887
 20
7.050208956795284
 30
0.0
 10
3.680422778143865
 20
6.767716634573751
 30
0.0
 10
3.647197037166446
 20
6.484775395583939
 30
0.0
 10
3.852839961716402
 20
6.325023252605438
 30
0.0
 10
3.955125912464975
 20
6.21614879458719
 30
0.0
 10
4.140099783698474
 20
6.194166234331138
 30
0.0
 10
4.028603417994128
 20
6.371709515628807
 30
0.0
 10
4.080079118208701
 20
6.587503861207101
 30
0.0
 10
3.980294320023356
 20
6.940516799970255
 30
0.0
 10
4.056496345365173
 20
7.223749766504443
 30
0.0
 10
3.852141451284085
 20
7.507009185512156
 30
0.0
 10
3.802320330400846
 20
7.374791833445526
 30
0.0
 10
3.779245754458276
 20
7.313555569043991
 30
0.0
 11
3.779245754458276
 21
7.313555569043991
 31
0.0
 11
3.681047494081015
 21
7.038736055936512
 31
0.0
 11
3.671227671355496
 21
6.773731520949706
 31
0.0
 11
3.70068713953206
 21
6.479282030646109
 31
0.0
 11
3.847984513536925
 21
6.322242317851018
 31
0.0
 11
4.014921532992837
 21
6.214277495659305
 31
0.0
 11
4.103299970644571
 21
6.214277495659305
 31
0.0
 11
4.073840469345969
 21
6.312427339730341
 31
0.0
 11
4.054200823894926
 21
6.54798691940036
 31
0.0
 11
4.014921532992837
 21
6.930771254699557
 31
0.0
 11
3.975642242090753
 21
7.313555569043991
 31
0.0
 11
3.857804336262451
 21
7.441150347477057
 31
0.0
 11
3.779245754458276
 21
7.313555569043991
 31
0.0
  0
ENDBLK
  5
38
330
2B
100
AcDbEntity
  8
0
100
AcDbBlockEnd
  0
ENDSEC
  0
SECTION
  2
ENTITIES
  0
SPLINE
  5
50
330
1F
100
AcDbEntity
  8
0
100
AcDbSpline
210
0.0
220
0.0
230
1.0
 70
     8
 71
     3
 72
   228
 73
   224
 74
     0
 42
0.0000000001
 43
0.0000000001
 40
18.15317784637954
 40
18.15317784637954
 40
18.15317784637954
 40
18.15317784637954
 40
18.19442928707335
 40
18.40205041481418
 40
18.46826173780685
 40
18.59782096762878
 40
18.77688361933587
 40
19.09849165029282
 40
19.16892281293901
 40
19.29873072589859
 40
19.48105487587248
 40
19.75820097547687
 40
19.85941658232992
 40
19.98551136504771
 40
20.24840974574575
 40
20.32399580820001
 40
20.41090372131192
 40
20.606199399534
 40
20.91657161917655
 40
21.25328361737197
 40
21.41442767733424
 40
21.67590825737617
 40
21.81853405737403
 40
21.99185954714209
 40
22.36721041083589
 40
22.56564534107663
 40
22.6509975551746
 40
22.82630858791415
 40
22.89334660693949
 40
23.02867773077447
 40
23.13484976376452
 40
23.30510128757439
 40
23.34262598472589
 40
23.35809627099921
 40
23.3811557540393
 40
23.4942264344917
 40
23.64412762293143
 40
23.72466269926979
 40
23.81363978649746
 40
23.89758449911623
 40
23.96694636563468
 40
24.04696407279342
 40
24.14611826910752
 40
24.26749156310144
 40
24.38504785779652
 40
24.51756617473181
 40
24.70713154956148
 40
25.05319841947873
 40
25.62968594304292
 40
26.00411163148661
 40
26.29903467177612
 40
26.3691623883272
 40
26.40177499641578
 40
26.44333470333827
 40
26.5264541785357
 40
26.7095095244323
 40
26.82850941583739
 40
27.03467846951918
 40
27.15054612566465
 40
27.27311733634735
 40
27.51586380003883
 40
27.67512186410478
 40
27.84743554990889
 40
27.89178842786002
 40
27.97493820282728
 40
28.07000447315838
 40
28.13035945585698
 40
28.23914110398003
 40
28.29678986423461
 40
28.48819667081647
 40
28.55543254306902
 40
28.63999438171925
 40
28.78584842281219
 40
28.93141926164735
 40
29.05222183318691
 40
29.19152288489335
 40
29.25855599952687
 40
29.36987237062647
 40
29.52464233642757
 40
29.6672309557638
 40
29.80983040372734
 40
29.89515552255328
 40
29.94593973991536
 40
30.06851095059805
 40
30.21462334271469
 40
30.29667942640124
 40
30.44875722641494
 40
30.69653993460419
 40
30.90127829490282
 40
31.0977623717819
 40
31.26978874974954
 40
31.48253135848638
 40
31.55939631678783
 40
31.72973116725016
 40
31.80443530130693
 40
31.94230185813415
 40
32.08982358040866
 40
32.40539291456205
 40
32.56168509302563
 40
32.71760040216598
 40
32.90651645239946
 40
33.01577568207703
 40
33.19322630014767
 40
33.37886562828996
 40
33.4667746192415
 40
33.54046723158916
 40
33.61151779334858
 40
33.64613554351468
 40
33.77748430214582
 40
33.89763184280898
 40
34.0085552598112
 40
34.10088683294076
 40
34.19328531638398
 40
34.25730403084052
 40
34.32638287338468
 40
34.34901538679172
 40
34.42456057112833
 40
34.52254154128349
 40
34.59808668371133
 40
34.67107872898941
 40
34.81324747203102
 40
34.93093641518282
 40
34.99874532082801
 40
35.0339619080582
 40
35.14094039536903
 40
35.23376228892799
 40
35.52764459470864
 40
35.6674514840486
 40
35.78229873055391
 40
35.87260030731725
 40
35.94824366759961
 40
36.10157940262938
 40
36.30378282101142
 40
36.46981847846483
 40
36.57888805508424
 40
36.57888805508424
 40
36.57888805508424
 40
36.74842448002892
 40
37.06669658217092
 40
37.32487004281202
 40
37.60503870465868
 40
37.98768992162051
 40
38.32441741632163
 40
38.71335918925514
 40
39.26212528330036
 40
39.84581097672604
 40
40.31172212888715
 40
40.62672136043574
 40
40.8525666577826
 40
41.0964065814517
 40
41.43657983528021
 40
41.7336457213857
 40
41.9602838666021
 40
42.17707278237611
 40
42.48075493518943
 40
42.76071448479779
 40
42.90318723637018
 40
42.95319596551029
 40
43.01046842169831
 40
43.07757943310896
 40
43.20253712534422
 40
43.35990054649082
 40
43.51321250307345
 40
43.68397032262417
 40
43.81620903275947
 40
43.89933986670917
 40
43.97712654744997
 40
44.06312415033568
 40
44.17803503828978
 40
44.31475871506257
 40
44.42187223498746
 40
44.51405504975282
 40
44.6099771243468
 40
44.64637181207208
 40
44.77264524330293
 40
44.84545511165882
 40
44.88146253150906
 40
45.08301153942393
 40
45.17802775778486
 40
45.24744828619765
 40
45.41967143348155
 40
45.50535149223487
 40
45.5950605650106
 40
45.6477696190985
 40
45.77137068739147
 40
45.81719332433684
 40
45.94036440899272
 40
45.97270792085905
 40
46.03654225598334
 40
46.24847635442733
 40
46.45620415167755
 40
46.56222480023127
 40
46.82235841246185
 40
47.13633598511478
 40
47.45761306016625
 40
47.85706038237463
 40
48.24456077278192
 40
48.99350466463236
 40
49.59073791341296
 40
49.69652957757325
 40
50.47109658584358
 40
50.8631197471659
 40
51.16707873220555
 40
51.40089676518662
 40
51.48599006996572
 40
51.65992313329808
 40
51.9633347058123
 40
52.01526493625097
 40
52.06043487962308
 40
52.20441080562554
 40
52.28070047562463
 40
52.39562805275242
 40
52.52831231953972
 40
52.7589072984281
 40
52.85542197439233
 40
52.91093749316583
 40
52.99539825089211
 40
53.12885733840069
 40
53.2943993852902
 40
53.61721080526052
 40
53.85758948769454
 40
54.07016948883404
 40
54.21098919933289
 40
54.21098919933289
 40
54.21098919933289
 40
54.21098919933289
 10
25.19254014441518
 20
5.566076675489579
 30
0.0
 10
25.16808195626699
 20
5.56754526080115
 30
0.0
 10
25.01979283538877
 20
5.579868191081459
 30
0.0
 10
24.83212420028252
 20
5.590687516239988
 30
0.0
 10
24.62962550136897
 20
5.72550553419397
 30
0.0
 10
24.40068539107923
 20
5.686961928649747
 30
0.0
 10
24.03127856946602
 20
5.65106593060819
 30
0.0
 10
23.75438401195456
 20
5.58744779179991
 30
0.0
 10
23.35581685612784
 20
5.672237154812108
 30
0.0
 10
23.69061336830748
 20
5.844690302160781
 30
0.0
 10
23.89412875840707
 20
6.049315899705831
 30
0.0
 10
24.2739771569661
 20
6.012083175267356
 30
0.0
 10
24.54302679365747
 20
6.140710646063329
 30
0.0
 10
24.72390215311012
 20
6.379475953630926
 30
0.0
 10
24.76296075516914
 20
6.640057993792833
 30
0.0
 10
24.89181305455938
 20
6.881769407541348
 30
0.0
 10
24.72578359654805
 20
7.064404751828067
 30
0.0
 10
24.37574498534007
 20
7.095723858082429
 30
0.0
 10
23.90690878401797
 20
7.235647523169337
 30
0.0
 10
23.41559889229472
 20
7.231997396999691
 30
0.0
 10
23.03787802443823
 20
7.492616272012355
 30
0.0
 10
22.68980404064896
 20
7.46342912152517
 30
0.0
 10
22.35666885834319
 20
7.40687114144087
 30
0.0
 10
22.01316174357022
 20
7.183028605797549
 30
0.0
 10
21.70030472112607
 20
6.85316750735658
 30
0.0
 10
21.33890653417044
 20
6.750237439932067
 30
0.0
 10
21.09267302462199
 20
6.573415174115577
 30
0.0
 10
20.94359268786394
 20
6.794306036017104
 30
0.0
 10
20.70664437157388
 20
6.794835647902587
 30
0.0
 10
20.59171210918262
 20
6.618044981813017
 30
0.0
 10
20.4047385383205
 20
6.53038908617983
 30
0.0
 10
20.09579894116019
 20
6.420567844218197
 30
0.0
 10
20.11492786097517
 20
6.619849247070238
 30
0.0
 10
20.06292350403833
 20
6.604930917244139
 30
0.0
 10
19.98822667817722
 20
6.677370705726474
 30
0.0
 10
19.8930670989416
 20
6.395597566128799
 30
0.0
 10
19.66215174483279
 20
6.491506544238227
 30
0.0
 10
19.48538029167229
 20
6.582369704176695
 30
0.0
 10
19.53563754539575
 20
6.797672709952376
 30
0.0
 10
19.34610072443895
 20
6.754639614440065
 30
0.0
 10
19.2278319477797
 20
6.865150460333101
 30
0.0
 10
19.2860924453985
 20
7.006476171898448
 30
0.0
 10
19.45409702304159
 20
7.201490963020969
 30
0.0
 10
19.13308842852235
 20
7.153366429723579
 30
0.0
 10
19.00572123263088
 20
7.366029630400856
 30
0.0
 10
19.09103397305874
 20
7.63200544981651
 30
0.0
 10
19.40090322995953
 20
7.880129881472637
 30
0.0
 10
19.93293079129112
 20
8.247715599501908
 30
0.0
 10
20.67295288999941
 20
8.491098601507875
 30
0.0
 10
21.20148568367107
 20
8.992188347374035
 30
0.0
 10
21.5726622856263
 20
9.239242951592782
 30
0.0
 10
21.74074373003698
 20
9.375819731032148
 30
0.0
 10
21.82970087206689
 20
9.425468227999832
 30
0.0
 10
21.88101122979475
 20
9.30828631092903
 30
0.0
 10
21.72963456022543
 20
9.176455130716639
 30
0.0
 10
21.61632139018864
 20
8.983086987545469
 30
0.0
 10
21.53546148711442
 20
8.708838446948536
 30
0.0
 10
21.46490962562046
 20
8.394328909458888
 30
0.0
 10
21.72668916959846
 20
8.271269749515425
 30
0.0
 10
21.99302393723693
 20
8.190742757886678
 30
0.0
 10
22.30643724515151
 20
8.285525962375892
 30
0.0
 10
22.59909226543798
 20
8.44710901588736
 30
0.0
 10
22.76437472345962
 20
8.588399773487061
 30
0.0
 10
22.89858054262913
 20
8.708936654717618
 30
0.0
 10
23.05132669149124
 20
8.68074522772865
 30
0.0
 10
23.12980487672605
 20
8.557591536711992
 30
0.0
 10
23.28215721722035
 20
8.508579726530332
 30
0.0
 10
23.41990810258706
 20
8.521901980138046
 30
0.0
 10
23.60424128042798
 20
8.623235006849309
 30
0.0
 10
23.75083860075614
 20
8.727163236138746
 30
0.0
 10
23.96821060811508
 20
8.770487674509116
 30
0.0
 10
24.08209149147824
 20
8.608373537969448
 30
0.0
 10
24.32825033454072
 20
8.601877453479598
 30
0.0
 10
24.54918482331285
 20
8.70865800202921
 30
0.0
 10
24.72551114659741
 20
8.84529417828914
 30
0.0
 10
24.86401530706321
 20
9.057494004753788
 30
0.0
 10
25.03814886751513
 20
8.944445361062172
 30
0.0
 10
25.23093168764493
 20
8.886623940466659
 30
0.0
 10
25.45312878855093
 20
9.03975582589997
 30
0.0
 10
25.57783099691986
 20
9.262924747962369
 30
0.0
 10
25.80444637605653
 20
9.354700074124178
 30
0.0
 10
25.82264760597653
 20
9.54209211541816
 30
0.0
 10
25.97980383109911
 20
9.603606425157238
 30
0.0
 10
26.15101188794219
 20
9.49954122549412
 30
0.0
 10
26.36588825860862
 20
9.490810367098248
 30
0.0
 10
26.57046978593321
 20
9.57856303363901
 30
0.0
 10
26.82668749557087
 20
9.708770765808875
 30
0.0
 10
27.00719445900916
 20
10.02914418004899
 30
0.0
 10
27.17414714960725
 20
10.36717772988611
 30
0.0
 10
27.2636770416856
 20
10.68792936964529
 30
0.0
 10
27.31816988866377
 20
11.03699993236783
 30
0.0
 10
27.34360796329275
 20
11.25515117197544
 30
0.0
 10
27.38398028259718
 20
11.62829329405415
 30
0.0
 10
27.22405978896016
 20
11.2729966390672
 30
0.0
 10
27.21619885671055
 20
11.07820633522356
 30
0.0
 10
27.11330559724751
 20
10.87806822880135
 30
0.0
 10
26.98513422404822
 20
10.55914951494634
 30
0.0
 10
26.76690643342933
 20
10.25131203581459
 30
0.0
 10
26.46569435263132
 20
10.04452104383442
 30
0.0
 10
26.18852395290379
 20
9.919986552588678
 30
0.0
 10
25.9069729022651
 20
10.01931798602224
 30
0.0
 10
25.66738040513669
 20
9.845138991359746
 30
0.0
 10
25.51219098941349
 20
9.62472363862124
 30
0.0
 10
25.35388556240459
 20
9.396541190320199
 30
0.0
 10
25.14723542461639
 20
9.338951462589786
 30
0.0
 10
25.00285211081934
 20
9.423683922405551
 30
0.0
 10
25.03445147904766
 20
9.537260590346061
 30
0.0
 10
24.94438098712944
 20
9.675469850092209
 30
0.0
 10
24.81752017745341
 20
9.417206897582659
 30
0.0
 10
24.65708941964586
 20
9.324866167384854
 30
0.0
 10
24.52802889877823
 20
9.18565987961027
 30
0.0
 10
24.38588770341593
 20
9.055899045772989
 30
0.0
 10
24.2408589182223
 20
9.117155176230436
 30
0.0
 10
24.10944467286879
 20
9.183438086165121
 30
0.0
 10
24.13142230560606
 20
9.289874572324851
 30
0.0
 10
24.05439297332382
 20
9.371797685912511
 30
0.0
 10
23.96015043294135
 20
9.22955441919062
 30
0.0
 10
23.85016754955168
 20
9.164962124485455
 30
0.0
 10
23.73010112659442
 20
9.081436133700403
 30
0.0
 10
23.60695035410698
 20
8.950984164448048
 30
0.0
 10
23.38786867638655
 20
9.015654587022048
 30
0.0
 10
23.22348688891215
 20
9.126238758761765
 30
0.0
 10
23.23040394922136
 20
9.301445229198154
 30
0.0
 10
23.08461593087562
 20
9.288522129182819
 30
0.0
 10
23.00177607289636
 20
9.171795112742277
 30
0.0
 10
22.78432152805059
 20
8.985046402647537
 30
0.0
 10
22.58093710295022
 20
8.749139612591818
 30
0.0
 10
22.32897424757833
 20
8.55673212944259
 30
0.0
 10
22.15194912422277
 20
8.443705196161339
 30
0.0
 10
21.97733091077125
 20
8.468510533401147
 30
0.0
 10
21.83143337115064
 20
8.610800762417419
 30
0.0
 10
21.9062869883571
 20
8.88523353253743
 30
0.0
 10
21.92687879006237
 20
9.17838152400294
 30
0.0
 10
22.01795922430666
 20
9.446084506029727
 30
0.0
 10
22.04624747132938
 20
9.603909655295669
 30
0.0
 10
22.05746276912797
 20
9.666481791621421
 30
0.0
 10
22.10237004227386
 20
9.754514147227446
 30
0.0
 10
22.23158210260794
 20
10.0078103562171
 30
0.0
 10
22.40140520165345
 20
10.41221729517115
 30
0.0
 10
22.72550786757455
 20
10.79884587509449
 30
0.0
 10
22.93971245655579
 20
11.29726993632486
 30
0.0
 10
23.31456512310464
 20
11.74787101821538
 30
0.0
 10
23.67742176204661
 20
12.28752577802141
 30
0.0
 10
24.2672821325807
 20
12.75151894984056
 30
0.0
 10
24.97750390159729
 20
13.28218741578128
 30
0.0
 10
25.62579923612151
 20
13.95654319950151
 30
0.0
 10
26.15323805993895
 20
14.55459260128042
 30
0.0
 10
26.4994111638244
 20
15.02621120561328
 30
0.0
 10
26.73861602128173
 20
15.4267671911209
 30
0.0
 10
26.7646994172647
 20
15.91212988618839
 30
0.0
 10
27.03089495833808
 20
16.36133903103549
 30
0.0
 10
27.25532466836523
 20
16.81862386812393
 30
0.0
 10
27.57415802804183
 20
17.11178043251983
 30
0.0
 10
27.93355739007087
 20
17.3868083607956
 30
0.0
 10
28.41658111151386
 20
17.35941605291479
 30
0.0
 10
28.86068642300097
 20
17.36540270080559
 30
0.0
 10
29.08502700633419
 20
17.23503361978619
 30
0.0
 10
29.2399417705743
 20
17.15804629657545
 30
0.0
 10
29.29692831278983
 20
17.27196816688745
 30
0.0
 10
29.33853267907478
 20
17.40421295892408
 30
0.0
 10
29.50805127257696
 20
17.53685985003142
 30
0.0
 10
29.67154062927946
 20
17.73878803450177
 30
0.0
 10
29.96893247299345
 20
17.78768661539719
 30
0.0
 10
30.22925632563598
 20
17.7213528687754
 30
0.0
 10
30.42528258403213
 20
17.59305522898857
 30
0.0
 10
30.51042916324254
 20
17.44235357464603
 30
0.0
 10
30.58349587150027
 20
17.31902882457851
 30
0.0
 10
30.60600796806837
 20
17.14482958013737
 30
0.0
 10
30.48194053892965
 20
16.98653187103119
 30
0.0
 10
30.37418791509864
 20
16.77704496746043
 30
0.0
 10
30.15748860652376
 20
16.79274996797012
 30
0.0
 10
29.98571996721279
 20
16.85769523730833
 30
0.0
 10
29.94637608276143
 20
16.99050007695297
 30
0.0
 10
29.91865750490153
 20
17.15263747900247
 30
0.0
 10
29.70966526806528
 20
17.09112974796837
 30
0.0
 10
29.61707448994738
 20
17.00963420544547
 30
0.0
 10
29.47005416634407
 20
16.89264896757479
 30
0.0
 10
29.51793771834331
 20
16.65845190958989
 30
0.0
 10
29.53261787199944
 20
16.45054355087562
 30
0.0
 10
29.62898165195153
 20
16.27271262184863
 30
0.0
 10
29.78534701553907
 20
16.1569311470452
 30
0.0
 10
29.91361978671259
 20
16.00007287760434
 30
0.0
 10
29.97463191305754
 20
15.87617015227813
 30
0.0
 10
29.90550841315046
 20
15.69462994229137
 30
0.0
 10
29.7536722048982
 20
15.83781849497557
 30
0.0
 10
29.58812061895754
 20
15.83666535083299
 30
0.0
 10
29.46769249207481
 20
15.86615855342677
 30
0.0
 10
29.34238112772193
 20
15.81747528864019
 30
0.0
 10
29.28196126214117
 20
15.62572252442161
 30
0.0
 10
28.9432841535302
 20
15.60519217128856
 30
0.0
 10
28.74833741865428
 20
15.32843472710331
 30
0.0
 10
28.70296587397216
 20
14.99581080742886
 30
0.0
 10
28.7113693438764
 20
14.59786524437394
 30
0.0
 10
28.75950119540542
 20
14.07677922476778
 30
0.0
 10
28.91149702736535
 20
13.49007476495056
 30
0.0
 10
29.12129106369847
 20
12.88143720179696
 30
0.0
 10
29.45877939565473
 20
12.03627202051361
 30
0.0
 10
29.28120967109448
 20
11.00032166814576
 30
0.0
 10
29.09169869026751
 20
10.17180521975622
 30
0.0
 10
28.68982241847559
 20
9.409591534015582
 30
0.0
 10
28.46786583630001
 20
8.65470521217664
 30
0.0
 10
27.75033674685111
 20
8.14613507011149
 30
0.0
 10
27.47407689718121
 20
7.654405850116198
 30
0.0
 10
26.92560110872682
 20
7.699750377458261
 30
0.0
 10
26.98694693367782
 20
7.3748883306924
 30
0.0
 10
26.97109770081431
 20
7.060713613656588
 30
0.0
 10
26.98418587756218
 20
6.75592206249437
 30
0.0
 10
26.96505203151908
 20
6.509684906836387
 30
0.0
 10
27.0695940496905
 20
6.403472400122176
 30
0.0
 10
27.10345180933468
 20
6.252468654570922
 30
0.0
 10
27.22273162310931
 20
6.07973333777479
 30
0.0
 10
27.43166066193615
 20
6.080552759213677
 30
0.0
 10
27.66765068801864
 20
5.930266170186371
 30
0.0
 10
27.95682147964667
 20
5.898911255815178
 30
0.0
 10
28.11966424307416
 20
5.763835877850858
 30
0.0
 10
28.27240934114186
 20
5.693695495906442
 30
0.0
 10
28.13397471033397
 20
5.516561910088807
 30
0.0
 10
27.92000150764542
 20
5.464345404070087
 30
0.0
 10
27.56189778804759
 20
5.574251164950492
 30
0.0
 10
27.13361881464786
 20
5.60824425867316
 30
0.0
 10
26.6904918017657
 20
5.50151140929897
 30
0.0
 10
26.34676950767987
 20
5.462139081699888
 30
0.0
 10
26.13988033678565
 20
5.449967403397039
 30
0.0
 10
26.05783550548646
 20
5.456089261495648
 30
0.0
  0
LINE
  5
51
330
1F
100
AcDbEntity
  8
0
100
AcDbLine
 10
5.136098280507956
 20
2.413634642056351
 30
0.0
 11
4.826502236413438
 21
5.671402247743209
 31
0.0
  0
LINE
  5
52
330
1F
100
AcDbEntity
  8
0
100
AcDbLine
 10
5.136098280507956
 20
2.413634642056351
 30
0.0
 11
5.444091194664229
 21
5.654533089108479
 31
0.0
  0
LINE
  5
53
330
1F
100
AcDbEntity
  8
0
100
AcDbLine
 10
10.67468537209161
 20
2.434448094108009
 30
0.0
 11
10.43765412785148
 21
5.67138672010471
 31
0.0
  0
LINE
  5
54
330
1F
100
AcDbEntity
  8
0
100
AcDbLine
 10
10.67468537209161
 20
2.434448094108009
 30
0.0
 11
10.91171661633173
 21
5.611128790240318
 31
0.0
  0
LINE
  5
55
330
1F
100
AcDbEntity
  8
0
100
AcDbLine
 10
16.40044943280754
 20
2.719920488627447
 30
0.0
 11
16.63748067704767
 21
5.896601184759763
 31
0.0
  0
LINE
  5
56
330
1F
100
AcDbEntity
  8
0
100
AcDbLine
 10
16.40044943280754
 20
2.719920488627447
 30
0.0
 11
16.1634181885674
 21
5.956859114624151
 31
0.0
  0
LINE
  5
57
330
1F
100
AcDbEntity
  8
0
100
AcDbLine
 10
25.62518782495003
 20
-0.3422329782262814
 30
0.0
 11
25.19254014441359
 21
5.566076675489671
 31
0.0
  0
LINE
  5
58
330
1F
100
AcDbEntity
  8
0
100
AcDbLine
 10
25.62518782495003
 20
-0.3422329782262814
 30
0.0
 11
26.05783550548646
 21
5.456089261495648
 31
0.0
  0
SPLINE
  5
59
330
1F
100
AcDbEntity
  8
0
100
AcDbSpline
210
0.0
220
0.0
230
1.0
 70
     8
 71
     3
 72
   228
 73
   224
 74
     0
 42
0.0000000001
 43
0.0000000001
 40
18.15317784637954
 40
18.15317784637954
 40
18.15317784637954
 40
18.15317784637954
 40
18.19442928707335
 40
18.40205041481418
 40
18.46826173780685
 40
18.59782096762878
 40
18.77688361933587
 40
19.09849165029282
 40
19.16892281293901
 40
19.29873072589859
 40
19.48105487587248
 40
19.75820097547687
 40
19.85941658232992
 40
19.98551136504771
 40
20.24840974574575
 40
20.32399580820001
 40
20.41090372131192
 40
20.606199399534
 40
20.91657161917655
 40
21.25328361737197
 40
21.41442767733424
 40
21.67590825737617
 40
21.81853405737403
 40
21.99185954714209
 40
22.36721041083589
 40
22.56564534107663
 40
22.6509975551746
 40
22.82630858791415
 40
22.89334660693949
 40
23.02867773077447
 40
23.13484976376452
 40
23.30510128757439
 40
23.34262598472589
 40
23.35809627099921
 40
23.3811557540393
 40
23.4942264344917
 40
23.64412762293143
 40
23.72466269926979
 40
23.81363978649746
 40
23.89758449911623
 40
23.96694636563468
 40
24.04696407279342
 40
24.14611826910752
 40
24.26749156310144
 40
24.38504785779652
 40
24.51756617473181
 40
24.70713154956148
 40
25.05319841947873
 40
25.62968594304292
 40
26.00411163148661
 40
26.29903467177612
 40
26.3691623883272
 40
26.40177499641578
 40
26.44333470333827
 40
26.5264541785357
 40
26.7095095244323
 40
26.82850941583739
 40
27.03467846951918
 40
27.15054612566465
 40
27.27311733634735
 40
27.51586380003883
 40
27.67512186410478
 40
27.84743554990889
 40
27.89178842786002
 40
27.97493820282728
 40
28.07000447315838
 40
28.13035945585698
 40
28.23914110398003
 40
28.29678986423461
 40
28.48819667081647
 40
28.55543254306902
 40
28.63999438171925
 40
28.78584842281219
 40
28.93141926164735
 40
29.05222183318691
 40
29.19152288489335
 40
29.25855599952687
 40
29.36987237062647
 40
29.52464233642757
 40
29.6672309557638
 40
29.80983040372734
 40
29.89515552255328
 40
29.94593973991536
 40
30.06851095059805
 40
30.21462334271469
 40
30.29667942640124
 40
30.44875722641494
 40
30.69653993460419
 40
30.90127829490282
 40
31.0977623717819
 40
31.26978874974954
 40
31.48253135848638
 40
31.55939631678783
 40
31.72973116725016
 40
31.80443530130693
 40
31.94230185813415
 40
32.08982358040866
 40
32.40539291456205
 40
32.56168509302563
 40
32.71760040216598
 40
32.90651645239946
 40
33.01577568207703
 40
33.19322630014767
 40
33.37886562828996
 40
33.4667746192415
 40
33.54046723158916
 40
33.61151779334858
 40
33.64613554351468
 40
33.77748430214582
 40
33.89763184280898
 40
34.0085552598112
 40
34.10088683294076
 40
34.19328531638398
 40
34.25730403084052
 40
34.32638287338468
 40
34.34901538679172
 40
34.42456057112833
 40
34.52254154128349
 40
34.59808668371133
 40
34.67107872898941
 40
34.81324747203102
 40
34.93093641518282
 40
34.99874532082801
 40
35.0339619080582
 40
35.14094039536903
 40
35.23376228892799
 40
35.52764459470864
 40
35.6674514840486
 40
35.78229873055391
 40
35.87260030731725
 40
35.94824366759961
 40
36.10157940262938
 40
36.30378282101142
 40
36.46981847846483
 40
36.57888805508424
 40
36.57888805508424
 40
36.57888805508424
 40
36.74842448002892
 40
37.06669658217092
 40
37.32487004281202
 40
37.60503870465868
 40
37.98768992162051
 40
38.32441741632163
 40
38.71335918925514
 40
39.26212528330036
 40
39.84581097672604
 40
40.31172212888715
 40
40.62672136043574
 40
40.8525666577826
 40
41.0964065814517
 40
41.43657983528021
 40
41.7336457213857
 40
41.9602838666021
 40
42.17707278237611
 40
42.48075493518943
 40
42.76071448479779
 40
42.90318723637018
 40
42.95319596551029
 40
43.01046842169831
 40
43.07757943310896
 40
43.20253712534422
 40
43.35990054649082
 40
43.51321250307345
 40
43.68397032262417
 40
43.81620903275947
 40
43.89933986670917
 40
43.97712654744997
 40
44.06312415033568
 40
44.17803503828978
 40
44.31475871506257
 40
44.42187223498746
 40
44.51405504975282
 40
44.6099771243468
 40
44.64637181207208
 40
44.77264524330293
 40
44.84545511165882
 40
44.88146253150906
 40
45.08301153942393
 40
45.17802775778486
 40
45.24744828619765
 40
45.41967143348155
 40
45.50535149223487
 40
45.5950605650106
 40
45.6477696190985
 40
45.77137068739147
 40
45.81719332433684
 40
45.94036440899272
 40
45.97270792085905
 40
46.03654225598334
 40
46.24847635442733
 40
46.45620415167755
 40
46.56222480023127
 40
46.82235841246185
 40
47.13633598511478
 40
47.45761306016625
 40
47.85706038237463
 40
48.24456077278192
 40
48.99350466463236
 40
49.59073791341296
 40
49.69652957757325
 40
50.47109658584358
 40
50.8631197471659
 40
51.16707873220555
 40
51.40089676518662
 40
51.48599006996572
 40
51.65992313329808
 40
51.9633347058123
 40
52.01526493625097
 40
52.06043487962308
 40
52.20441080562554
 40
52.28070047562463
 40
52.39562805275242
 40
52.52831231953972
 40
52.7589072984281
 40
52.85542197439233
 40
52.91093749316583
 40
52.99539825089211
 40
53.12885733840069
 40
53.2943993852902
 40
53.61721080526052
 40
53.85758948769454
 40
54.07016948883404
 40
54.21098919933289
 40
54.21098919933289
 40
54.21098919933289
 40
54.21098919933289
 10
10.43765412785234
 20
5.67138672010466
 30
0.0
 10
10.42425441480769
 20
5.672191302260841
 30
0.0
 10
10.34301243337499
 20
5.678942568079268
 30
0.0
 10
10.24019591063545
 20
5.68487006571657
 30
0.0
 10
10.12925455876926
 20
5.758731741114889
 30
0.0
 10
10.00382696111945
 20
5.737615162451351
 30
0.0
 10
9.801442983354435
 20
5.717949107456011
 30
0.0
 10
9.649742964047998
 20
5.683095143650476
 30
0.0
 10
9.431383145865869
 20
5.729548017703081
 30
0.0
 10
9.614805448629164
 20
5.82402855216128
 30
0.0
 10
9.726303807010541
 20
5.936135151067222
 30
0.0
 10
9.934408328503492
 20
5.915736754410708
 30
0.0
 10
10.0818104134245
 20
5.986206863965957
 30
0.0
 10
10.1809051582531
 20
6.117017314316598
 30
0.0
 10
10.20230388396185
 20
6.259780324462923
 30
0.0
 10
10.27289716857118
 20
6.392204834578901
 30
0.0
 10
10.18193592970785
 20
6.492263808302809
 30
0.0
 10
9.990163059357913
 20
6.509422357990992
 30
0.0
 10
9.733305498012832
 20
6.586081223682977
 30
0.0
 10
9.46413545462267
 20
6.584081458084892
 30
0.0
 10
9.257196526457198
 20
6.726864648647993
 30
0.0
 10
9.066500000908067
 20
6.710874116612245
 30
0.0
 10
8.883987877731552
 20
6.679888145823117
 30
0.0
 10
8.695793366393777
 20
6.55725331585797
 30
0.0
 10
8.524390877404927
 20
6.376534938972334
 30
0.0
 10
8.326394526623598
 20
6.320143461451639
 30
0.0
 10
8.191492531842264
 20
6.223269252802516
 30
0.0
 10
8.109817073257381
 20
6.344286972747017
 30
0.0
 10
7.980002083468922
 20
6.344577126999137
 30
0.0
 10
7.917035058835495
 20
6.247720230641139
 30
0.0
 10
7.814599335416111
 20
6.19969689215668
 30
0.0
 10
7.645343055065413
 20
6.139530001642228
 30
0.0
 10
7.655823064247695
 20
6.248708719099756
 30
0.0
 10
7.627331850761091
 20
6.240535532371279
 30
0.0
 10
7.586408294779711
 20
6.28022254323233
 30
0.0
 10
7.534273972830682
 20
6.125849733953721
 30
0.0
 10
7.407764214057223
 20
6.178394623104377
 30
0.0
 10
7.310917843733878
 20
6.228175099979011
 30
0.0
 10
7.338451885676253
 20
6.346131445623509
 30
0.0
 10
7.234611854810943
 20
6.322555245792418
 30
0.0
 10
7.169816880638101
 20
6.3830999441289
 30
0.0
 10
7.201735596170126
 20
6.460526937875687
 30
0.0
 10
7.293778928119584
 20
6.567368140693847
 30
0.0
 10
7.117910502160779
 20
6.5410025353315
 30
0.0
 10
7.048130849395511
 20
6.657512631948968
 30
0.0
 10
7.094870462070837
 20
6.80323068904271
 30
0.0
 10
7.264636067710714
 20
6.939168648282212
 30
0.0
 10
7.556113776954671
 20
7.140554912508449
 30
0.0
 10
7.961543799379686
 20
7.273895222390258
 30
0.0
 10
8.251106858056846
 20
7.548423276698471
 30
0.0
 10
8.454460431304212
 20
7.683775118087314
 30
0.0
 10
8.546545875638372
 20
7.758600352154637
 30
0.0
 10
8.595282117638454
 20
7.785800879374168
 30
0.0
 10
8.623393115297245
 20
7.721601354321148
 30
0.0
 10
8.54045958311592
 20
7.649376053964406
 30
0.0
 10
8.478379597735409
 20
7.543436987064907
 30
0.0
 10
8.434079525651226
 20
7.393186620003813
 30
0.0
 10
8.395426838336145
 20
7.220878780738079
 30
0.0
 10
8.538845915375418
 20
7.153459337369341
 30
0.0
 10
8.68476062657757
 20
7.109341654831421
 30
0.0
 10
8.85646788326342
 20
7.161269775341125
 30
0.0
 10
9.016802461980251
 20
7.249794997929761
 30
0.0
 10
9.10735444789951
 20
7.327202841725355
 30
0.0
 10
9.180880722818105
 20
7.393240424313287
 30
0.0
 10
9.264564540729217
 20
7.377795411392348
 30
0.0
 10
9.307559760000588
 20
7.310324178036257
 30
0.0
 10
9.391027825252862
 20
7.283472467343127
 30
0.0
 10
9.466496307397886
 20
7.290771224486139
 30
0.0
 10
9.567485459689644
 20
7.346287744011227
 30
0.0
 10
9.647800567808493
 20
7.40322607653529
 30
0.0
 10
9.766890440897331
 20
7.426961892061232
 30
0.0
 10
9.829281454863394
 20
7.338145709237196
 30
0.0
 10
9.964142542710826
 20
7.334586751085833
 30
0.0
 10
10.08518416416199
 20
7.393087761080789
 30
0.0
 10
10.18178666471996
 20
7.46794553641185
 30
0.0
 10
10.25766783770334
 20
7.584201767884298
 30
0.0
 10
10.35306900672546
 20
7.522266706448949
 30
0.0
 10
10.45868739734489
 20
7.49058854455405
 30
0.0
 10
10.58042075606531
 20
7.574483692892968
 30
0.0
 10
10.64874036330908
 20
7.696749475542244
 30
0.0
 10
10.77289432898876
 20
7.74702969367193
 30
0.0
 10
10.78286609208545
 20
7.849694681159061
 30
0.0
 10
10.86896602340762
 20
7.88339603686251
 30
0.0
 10
10.96276442003172
 20
7.826382663469029
 30
0.0
 10
11.0804870284916
 20
7.821599357509111
 30
0.0
 10
11.19256948299631
 20
7.869675713101159
 30
0.0
 10
11.33294144208429
 20
7.941011587888787
 30
0.0
 10
11.43183435671806
 20
8.116532022679148
 30
0.0
 10
11.52330139967697
 20
8.30172777552233
 30
0.0
 10
11.57235142969148
 20
8.477455425720087
 30
0.0
 10
11.60220599242808
 20
8.668697939044406
 30
0.0
 10
11.61614254808673
 20
8.788214723908726
 30
0.0
 10
11.6382610096158
 20
8.99264513103597
 30
0.0
 10
11.5506466404846
 20
8.7979915780538
 30
0.0
 10
11.54633993404461
 20
8.691273363295948
 30
0.0
 10
11.48996862220906
 20
8.581625290466121
 30
0.0
 10
11.41974839121713
 20
8.406901830807697
 30
0.0
 10
11.300189666959
 20
8.238249359097057
 30
0.0
 10
11.13516699954707
 20
8.124956422761567
 30
0.0
 10
10.98331585675926
 20
8.056728701364349
 30
0.0
 10
10.82906472159252
 20
8.111148623897445
 30
0.0
 10
10.69780108547518
 20
8.015722563195687
 30
0.0
 10
10.6127786943782
 20
7.894965356674997
 30
0.0
 10
10.52604915895723
 20
7.769952853273856
 30
0.0
 10
10.4128333912878
 20
7.738401627106497
 30
0.0
 10
10.33373125332095
 20
7.78482332605737
 30
0.0
 10
10.35104334790811
 20
7.847047671939009
 30
0.0
 10
10.30169714375829
 20
7.922767280010219
 30
0.0
 10
10.232194920782
 20
7.781274809974171
 30
0.0
 10
10.1443009972774
 20
7.730684828431481
 30
0.0
 10
10.07359363602307
 20
7.654418986542875
 30
0.0
 10
9.995719869653342
 20
7.583327950390899
 30
0.0
 10
9.91626410240536
 20
7.616887859464398
 30
0.0
 10
9.844267224834217
 20
7.653201750236199
 30
0.0
 10
9.856307935711736
 20
7.711514261505659
 30
0.0
 10
9.814106487985934
 20
7.756396826278997
 30
0.0
 10
9.762474576820922
 20
7.678467138885157
 30
0.0
 10
9.702219129102708
 20
7.643079472035068
 30
0.0
 10
9.636439292747787
 20
7.597318751677974
 30
0.0
 10
9.568969658343096
 20
7.525849068662179
 30
0.0
 10
9.448943121748932
 20
7.561279538806488
 30
0.0
 10
9.358884579040081
 20
7.621864409591491
 30
0.0
 10
9.362674173865933
 20
7.717853385274818
 30
0.0
 10
9.282802451588466
 20
7.71077330923633
 30
0.0
 10
9.237417637355438
 20
7.646823006974138
 30
0.0
 10
9.118282545110041
 20
7.544510476235238
 30
0.0
 10
9.006855937481331
 20
7.415266099142378
 30
0.0
 10
8.868815051564538
 20
7.309853341409741
 30
0.0
 10
8.771829704968652
 20
7.247930174284288
 30
0.0
 10
8.676163012961701
 20
7.261520077141167
 30
0.0
 10
8.596231288134308
 20
7.339475493393766
 30
0.0
 10
8.637240744143234
 20
7.48982679281865
 30
0.0
 10
8.648522210793634
 20
7.650431451735141
 30
0.0
 10
8.698421724014387
 20
7.797095755673922
 30
0.0
 10
8.713919780957294
 20
7.883562165147107
 30
0.0
 10
8.720064216976053
 20
7.917843063890551
 30
0.0
 10
8.744667207603448
 20
7.966072650506649
 30
0.0
 10
8.815457591580184
 20
8.104844030266924
 30
0.0
 10
8.908497222389163
 20
8.326403243991979
 30
0.0
 10
9.086060772642273
 20
8.53822236953172
 30
0.0
 10
9.203415337412423
 20
8.811289996396549
 30
0.0
 10
9.40878288693595
 20
9.058157227867731
 30
0.0
 10
9.607578268209152
 20
9.353813589686957
 30
0.0
 10
9.930740378733547
 20
9.60801783897094
 30
0.0
 10
10.31984393150817
 20
9.898750951430873
 30
0.0
 10
10.67502034106807
 20
10.26820489205422
 30
0.0
 10
10.96398405518064
 20
10.595853462006
 30
0.0
 10
11.15363916077302
 20
10.8542353963624
 30
0.0
 10
11.28469042382636
 20
11.07368481884626
 30
0.0
 10
11.2989805265635
 20
11.33959661889786
 30
0.0
 10
11.44481896081458
 20
11.58570126089
 30
0.0
 10
11.56777548134008
 20
11.83623026817099
 30
0.0
 10
11.74245217868352
 20
11.99683962387069
 30
0.0
 10
11.93935344914736
 20
12.14751698786155
 30
0.0
 10
12.20398381431925
 20
12.13250978197165
 30
0.0
 10
12.44729225971509
 20
12.13578963914463
 30
0.0
 10
12.57019995110754
 20
12.06436536744589
 30
0.0
 10
12.65507187108056
 20
12.02218693489602
 30
0.0
 10
12.68629263479653
 20
12.08460040405581
 30
0.0
 10
12.70908608810735
 20
12.15705230663358
 30
0.0
 10
12.8019588918858
 20
12.22972450403163
 30
0.0
 10
12.89152850564442
 20
12.34035329268667
 30
0.0
 10
13.05445821014437
 20
12.36714296935117
 30
0.0
 10
13.19707976914762
 20
12.33080122708786
 30
0.0
 10
13.3044751164976
 20
12.26051181942472
 30
0.0
 10
13.35112369574807
 20
12.17794810246784
 30
0.0
 10
13.39115417216108
 20
12.11038315234985
 30
0.0
 10
13.40348769548745
 20
12.0149459975629
 30
0.0
 10
13.33551585969264
 20
11.92822069048792
 30
0.0
 10
13.27648228654339
 20
11.81345076650768
 30
0.0
 10
13.15776095958795
 20
11.82205494024783
 30
0.0
 10
13.06365544110503
 20
11.85763598850321
 30
0.0
 10
13.04210042000059
 20
11.93039471991037
 30
0.0
 10
13.02691446317181
 20
12.01922364902425
 30
0.0
 10
12.91241554832174
 20
11.9855258975436
 30
0.0
 10
12.86168857501349
 20
11.94087758272937
 30
0.0
 10
12.78114171945409
 20
11.87678581074569
 30
0.0
 10
12.80737530030894
 20
11.74847813096635
 30
0.0
 10
12.81541799935319
 20
11.63457303180376
 30
0.0
 10
12.86821205717272
 20
11.5371462148626
 30
0.0
 10
12.95387870547478
 20
11.47371393897801
 30
0.0
 10
13.02415448856852
 20
11.38777724626576
 30
0.0
 10
13.05758071704927
 20
11.31989564543897
 30
0.0
 10
13.0197105748382
 20
11.22043665423527
 30
0.0
 10
12.93652527885299
 20
11.29888422793218
 30
0.0
 10
12.84582584796089
 20
11.29825246402081
 30
0.0
 10
12.77984784775266
 20
11.31441067039039
 30
0.0
 10
12.71119450706408
 20
11.28773895725021
 30
0.0
 10
12.67809275577844
 20
11.18268489517165
 30
0.0
 10
12.49254442150752
 20
11.17143709386186
 30
0.0
 10
12.38574050412399
 20
11.0198121937431
 30
0.0
 10
12.36088315674202
 20
10.83758017195876
 30
0.0
 10
12.36548709897249
 20
10.61956090086549
 30
0.0
 10
12.39185671371619
 20
10.33407764707747
 30
0.0
 10
12.47512946147277
 20
10.01264454026111
 30
0.0
 10
12.59006765183714
 20
9.679195118536032
 30
0.0
 10
12.77496470049561
 20
9.216161191578098
 30
0.0
 10
12.67768098756847
 20
8.648603310097492
 30
0.0
 10
12.57385511352961
 20
8.194690592036248
 30
0.0
 10
12.35368235629834
 20
7.777102641295467
 30
0.0
 10
12.2320807686621
 20
7.363529075146949
 30
0.0
 10
11.8389738123514
 20
7.08490279565871
 30
0.0
 10
11.68762152538281
 20
6.81550301822272
 30
0.0
 10
11.38713245674447
 20
6.840345563829437
 30
0.0
 10
11.42074150602689
 20
6.662365977631651
 30
0.0
 10
11.41205831285402
 20
6.490241573785421
 30
0.0
 10
11.41922882816925
 20
6.323257850409657
 30
0.0
 10
11.40874612009354
 20
6.188353858063301
 30
0.0
 10
11.46602072425142
 20
6.130164056631521
 30
0.0
 10
11.48457010578442
 20
6.047434835366409
 30
0.0
 10
11.54991898882172
 20
5.952799710976897
 30
0.0
 10
11.66438327988094
 20
5.953248640884424
 30
0.0
 10
11.79367325883388
 20
5.870912322461126
 30
0.0
 10
11.95209896090285
 20
5.853734154864742
 30
0.0
 10
12.04131433074572
 20
5.77973148168412
 30
0.0
 10
12.12499757296645
 20
5.741304228397677
 30
0.0
 10
12.04915449264384
 20
5.64425945933522
 30
0.0
 10
11.93192669564184
 20
5.615652017418177
 30
0.0
 10
11.7357352584936
 20
5.675865212640534
 30
0.0
 10
11.50109746309168
 20
5.694488738578929
 30
0.0
 10
11.25832499037291
 20
5.636013861151901
 30
0.0
 10
11.07001259045615
 20
5.61444325712631
 30
0.0
 10
10.95666586561976
 20
5.607774856525992
 30
0.0
 10
10.91171661633173
 20
5.611128790240318
 30
0.0
  0
SPLINE
  5
5A
330
1F
100
AcDbEntity
  8
0
100
AcDbSpline
210
0.0
220
0.0
230
1.0
 70
     8
 71
     3
 72
   152
 73
   148
 74
     0
 42
0.0000000001
 43
0.0000000001
 40
10.07545293629971
 40
10.07545293629971
 40
10.07545293629971
 40
10.07545293629971
 40
10.13779878669126
 40
10.29585111824115
 40
10.42002305922965
 40
10.59379841658109
 40
10.70676189584041
 40
10.78006581518738
 40
10.92241999931466
 40
11.09461295733449
 40
11.24615312821654
 40
11.34348759990824
 40
11.56941456195426
 40
11.68905154247241
 40
11.9416257279708
 40
12.19612516623489
 40
12.38636114794287
 40
12.59498775878389
 40
12.67863958173176
 40
12.76195641846849
 40
12.80177490822087
 40
12.91739542658051
 40
13.00481146737165
 40
13.08886382527107
 40
13.13311384750067
 40
13.21043514426073
 40
13.30605719903666
 40
13.36115915075805
 40
13.47625464517687
 40
13.55731135369627
 40
13.68308003243175
 40
13.72595358947122
 40
13.7727574103637
 40
13.84933994515251
 40
14.01230161494864
 40
14.20113165767693
 40
14.31644589901837
 40
14.42838387490497
 40
14.56678975954103
 40
14.66753746760407
 40
14.94042386670017
 40
15.14467529791413
 40
15.26004752623345
 40
15.36075542848611
 40
15.51509554861124
 40
15.57883002726392
 40
15.67647935131099
 40
15.75200896809858
 40
15.85165506912006
 40
16.01968844384305
 40
16.26630102998189
 40
16.47907082403532
 40
16.54246326542028
 40
16.73054499505784
 40
16.79373875331308
 40
16.88798041573544
 40
16.98319698204801
 40
17.05876728152702
 40
17.28007419650429
 40
17.46123767963835
 40
17.58990507946771
 40
17.72063796593843
 40
17.87534427706111
 40
18.06467949835817
 40
18.20803120492855
 40
18.28226895445298
 40
18.40280695332856
 40
18.51009583249186
 40
18.54407188845319
 40
18.6855177718116
 40
18.90203681051065
 40
18.98046197673959
 40
19.05083465640416
 40
19.08801367110628
 40
19.14194222977613
 40
19.2111641346337
 40
19.30280067976991
 40
19.39452832958676
 40
19.4513389791061
 40
19.53041524663108
 40
19.57968832134669
 40
19.62785930933978
 40
19.75771067965261
 40
19.86933224895962
 40
19.92304751677137
 40
20.00851741582589
 40
20.07664679025753
 40
20.12010268067844
 40
20.29170224756851
 40
20.36164081807144
 40
20.39675684616076
 40
20.43360063295057
 40
20.48077369841811
 40
20.5443372442685
 40
20.5443372442685
 40
20.5443372442685
 40
20.76701908714996
 40
21.12769287324032
 40
21.4881721381437
 40
21.79822329145733
 40
22.20291395407643
 40
22.34913078537832
 40
22.51118313575906
 40
22.74907164495195
 40
23.02019047611719
 40
23.35568841582304
 40
23.50974247938402
 40
23.80212451113107
 40
23.94410190254371
 40
24.03412026432475
 40
24.13715736303001
 40
24.24925673108202
 40
24.43607865973941
 40
24.53539007431957
 40
24.59854947743676
 40
24.66876419439593
 40
24.81204344088447
 40
24.93643448853362
 40
25.01116746792678
 40
25.04477712452184
 40
25.13888798716026
 40
25.22864452380969
 40
25.3193140226197
 40
25.36548464549919
 40
25.45441746791669
 40
25.576702722999
 40
25.81210377521124
 40
25.86790688771702
 40
25.98162039001763
 40
26.20456479859504
 40
26.3373592746909
 40
26.42522473827825
 40
26.74720711028399
 40
27.12638298120469
 40
27.6368437705757
 40
27.82428329123873
 40
28.2716452324399
 40
28.68912715959403
 40
28.87273994874099
 40
29.1052842281222
 40
29.31280437612592
 40
29.58753087771928
 40
29.75804952224402
 40
29.84412697237528
 40
30.04228986101211
 40
30.19573869268024
 40
30.26158491311079
 40
30.26158491311079
 40
30.26158491311079
 40
30.26158491311079
 10
4.826502236413442
 20
5.671402247743209
 30
0.0
 10
4.789114465751018
 20
5.667993342856458
 30
0.0
 10
4.650929707587277
 20
5.650130923370067
 30
0.0
 10
4.382720262321956
 20
5.57809853141795
 30
0.0
 10
4.416742429210394
 20
5.969518061083089
 30
0.0
 10
4.67513139088117
 20
5.96995228857817
 30
0.0
 10
4.985326176077308
 20
5.907520035988763
 30
0.0
 10
4.864678711310311
 20
6.142508811885626
 30
0.0
 10
4.658958142082067
 20
6.214117026966942
 30
0.0
 10
4.439696306166276
 20
6.368518394014376
 30
0.0
 10
4.204820889098491
 20
6.510622569094444
 30
0.0
 10
4.247811404182651
 20
6.848323672602187
 30
0.0
 10
3.813784643899964
 20
6.774689021059472
 30
0.0
 10
3.633748470727663
 20
6.490564112801902
 30
0.0
 10
3.250731822115051
 20
6.350839368329189
 30
0.0
 10
2.85325218314427
 20
6.386750472921622
 30
0.0
 10
2.458871254723279
 20
6.419245539960328
 30
0.0
 10
2.250976133254253
 20
6.648376339861158
 30
0.0
 10
2.127447349331173
 20
6.8046013191029
 30
0.0
 10
2.017345774566415
 20
6.924365576183088
 30
0.0
 10
2.153996686866488
 20
7.036509500821971
 30
0.0
 10
2.259754759666622
 20
6.86522993007312
 30
0.0
 10
2.38573008560483
 20
6.76634991060278
 30
0.0
 10
2.5506871590845
 20
6.800601859159911
 30
0.0
 10
2.55731924352014
 20
6.940143088411065
 30
0.0
 10
2.743840803332844
 20
6.949181272059501
 30
0.0
 10
2.779440032831731
 20
6.79900380794572
 30
0.0
 10
2.913685345016917
 20
6.711981636879638
 30
0.0
 10
3.078146695469644
 20
6.709572245416527
 30
0.0
 10
3.227040874221035
 20
6.8287471358699
 30
0.0
 10
3.369076427968257
 20
6.878690697820488
 30
0.0
 10
3.441387249612269
 20
6.99377344131356
 30
0.0
 10
3.398685399772677
 20
7.099123037026771
 30
0.0
 10
3.209312520286772
 20
7.121636821626989
 30
0.0
 10
3.150516616374757
 20
7.425924740936366
 30
0.0
 10
2.881947606036099
 20
7.510295073484677
 30
0.0
 10
2.662647454756672
 20
7.678151965038377
 30
0.0
 10
2.468722110929434
 20
7.52358399609821
 30
0.0
 10
2.252323160059091
 20
7.547082830149392
 30
0.0
 10
1.982614386219614
 20
7.673849774050658
 30
0.0
 10
1.677485277109715
 20
7.815659919218401
 30
0.0
 10
1.340726893781294
 20
7.916506353896949
 30
0.0
 10
1.149956379444386
 20
8.07492605170707
 30
0.0
 10
1.035673369279075
 20
8.274728597200283
 30
0.0
 10
0.6817299850775669
 20
8.13829435005266
 30
0.0
 10
0.8207474193180832
 20
8.349441173578423
 30
0.0
 10
0.9406662946383725
 20
8.399168616208509
 30
0.0
 10
1.031808977917203
 20
8.537101443702709
 30
0.0
 10
1.047279761424974
 20
8.774461485865472
 30
0.0
 10
1.446299095091655
 20
8.69500858310953
 30
0.0
 10
1.746841407102236
 20
8.603783121719068
 30
0.0
 10
2.095181482401391
 20
8.614656176238639
 30
0.0
 10
2.279645510560344
 20
8.395478763079868
 30
0.0
 10
2.197460219887229
 20
8.162465707454813
 30
0.0
 10
2.388719778736128
 20
8.04512179171407
 30
0.0
 10
2.538011451461294
 20
8.06712894661209
 30
0.0
 10
2.694283512604641
 20
8.070142156021066
 30
0.0
 10
2.898919458185437
 20
8.20091126514221
 30
0.0
 10
3.178079385795463
 20
8.030488069367958
 30
0.0
 10
3.488095378983299
 20
7.998503924269968
 30
0.0
 10
3.689941441198211
 20
7.833686130968516
 30
0.0
 10
3.880648349423585
 20
7.662110536118227
 30
0.0
 10
4.178000020216979
 20
7.726953160439126
 30
0.0
 10
4.439626672356652
 20
7.602886580132548
 30
0.0
 10
4.682330899287494
 20
7.576232291987167
 30
0.0
 10
4.875746509044679
 20
7.648935172784689
 30
0.0
 10
5.001242467758396
 20
7.706198132862656
 30
0.0
 10
5.240607655144387
 20
7.809245962829695
 30
0.0
 10
5.075421392013264
 20
7.922141350974747
 30
0.0
 10
4.879064446328989
 20
7.844397286657329
 30
0.0
 10
4.464606800702441
 20
7.77852486628706
 30
0.0
 10
4.53297645800091
 20
8.039734275404871
 30
0.0
 10
4.431251202458246
 20
8.112911041476319
 30
0.0
 10
4.334227394384988
 20
8.128588548869089
 30
0.0
 10
4.255494837869058
 20
8.066069997008536
 30
0.0
 10
4.165403927442838
 20
7.978188050078298
 30
0.0
 10
4.007361114313576
 20
7.962889583592708
 30
0.0
 10
3.869758693794848
 20
8.014932686554153
 30
0.0
 10
3.788918691686724
 20
8.12796118462505
 30
0.0
 10
3.828802727132062
 20
8.269493787582611
 30
0.0
 10
3.696511745971431
 20
8.28698524022285
 30
0.0
 10
3.59528718826068
 20
8.195795433689998
 30
0.0
 10
3.415777318588231
 20
8.200798626714298
 30
0.0
 10
3.23113170712539
 20
8.220151136968357
 30
0.0
 10
3.143444895371702
 20
8.343840013912537
 30
0.0
 10
3.017648000411929
 20
8.390513904384157
 30
0.0
 10
2.90524987700628
 20
8.35155989483826
 30
0.0
 10
2.765358212099707
 20
8.257457030662376
 30
0.0
 10
2.598876954473025
 20
8.296631796172569
 30
0.0
 10
2.412742221241201
 20
8.261397493928768
 30
0.0
 10
2.370543578478345
 20
8.342173057069071
 30
0.0
 10
2.352446789196301
 20
8.409245880686281
 30
0.0
 10
2.37350664611049
 20
8.4961090780385
 30
0.0
 10
2.402438976210689
 20
8.553581039023697
 30
0.0
 10
2.419046324665687
 20
8.586570323992035
 30
0.0
 10
2.525898136743606
 20
8.660542277103559
 30
0.0
 10
2.805815911964597
 20
8.854325275642029
 30
0.0
 10
3.300212383627076
 20
9.103157492170261
 30
0.0
 10
3.869727369425833
 20
9.298079605804336
 30
0.0
 10
4.434079653533282
 20
9.577118945989539
 30
0.0
 10
4.938453319390485
 20
9.663758715272336
 30
0.0
 10
5.306035212886326
 20
9.858617841139309
 30
0.0
 10
5.633644994939752
 20
9.918775732903689
 30
0.0
 10
5.861709358453534
 20
10.26959474002615
 30
0.0
 10
6.149087008251513
 20
10.66498884036795
 30
0.0
 10
6.516972882194236
 20
10.91836825787324
 30
0.0
 10
6.913701791837546
 20
11.16963423122957
 30
0.0
 10
7.287877094723276
 20
11.06422011468228
 30
0.0
 10
7.545867933222476
 20
10.91171515872033
 30
0.0
 10
7.765191835054226
 20
10.91302929711015
 30
0.0
 10
7.861274912429366
 20
11.08822110625606
 30
0.0
 10
8.120807238292815
 20
11.12649538982615
 30
0.0
 10
8.314842233814056
 20
11.01376203526049
 30
0.0
 10
8.506239207753289
 20
10.8639546146691
 30
0.0
 10
8.448107297065634
 20
10.72767530002179
 30
0.0
 10
8.40898286010697
 20
10.55959700484592
 30
0.0
 10
8.138539698886354
 20
10.56633452832721
 30
0.0
 10
8.001561477545456
 20
10.71678354181916
 30
0.0
 10
7.867055934638621
 20
10.73804299690472
 30
0.0
 10
7.73884524886118
 20
10.7532066659737
 30
0.0
 10
7.710775655394813
 20
10.57957963417941
 30
0.0
 10
7.719154631206738
 20
10.43437328413142
 30
0.0
 10
7.67010211852795
 20
10.30162802405985
 30
0.0
 10
7.708120932685879
 20
10.1693199184398
 30
0.0
 10
7.78860166290705
 20
10.06390057753972
 30
0.0
 10
7.910896681202426
 20
9.671427460653106
 30
0.0
 10
7.585099964666261
 20
10.13298156309919
 30
0.0
 10
7.359563919658448
 20
10.03434104119307
 30
0.0
 10
7.196266715551781
 20
9.871363180156865
 30
0.0
 10
6.950173284855358
 20
9.750926270990408
 30
0.0
 10
6.737482563372542
 20
9.587480661864269
 30
0.0
 10
6.624505328645288
 20
9.28208857094431
 30
0.0
 10
6.692871559689401
 20
8.816193332685287
 30
0.0
 10
6.642844172630469
 20
8.100577803932317
 30
0.0
 10
6.377232453949418
 20
7.534133491234438
 30
0.0
 10
6.185897686182462
 20
6.866348046744107
 30
0.0
 10
5.620042003658948
 20
6.6163184281151
 30
0.0
 10
4.531481197188822
 20
6.919616512430199
 30
0.0
 10
5.014235010500726
 20
6.452767892582137
 30
0.0
 10
5.290020942033146
 20
6.288509263260191
 30
0.0
 10
5.545752358243673
 20
5.90095959843628
 30
0.0
 10
5.894816390779867
 20
5.867550796178399
 30
0.0
 10
6.30770679475099
 20
5.718596691470448
 30
0.0
 10
6.119709911796347
 20
5.433413770520537
 30
0.0
 10
5.827963102491251
 20
5.556107209267526
 30
0.0
 10
5.608644743188213
 20
5.629460773369949
 30
0.0
 10
5.482476328432013
 20
5.649698579509927
 30
0.0
 10
5.444091194664227
 20
5.654533089108479
 30
0.0
  0
CIRCLE
  5
5B
330
1F
100
AcDbEntity
  8
0
100
AcDbCircle
 10
7.204178696809664
 20
10.50910522660108
 30
0.0
 40
0.0950146656900102
  0
SPLINE
  5
5C
330
1F
100
AcDbEntity
  8
0
100
AcDbSpline
210
0.0
220
0.0
230
1.0
 70
    11
 71
     3
 72
    25
 73
    21
 74
    19
 42
0.0000000001
 43
0.0000000001
 44
0.0000000001
 40
0.0
 40
0.0
 40
0.0
 40
0.0
 40
0.0973140737091448
 40
0.2440147079990976
 40
0.4275010949674679
 40
0.502673797132063
 40
0.6583537768426515
 40
0.8231613609790777
 40
0.937671393801898
 40
1.176509521549648
 40
1.354713420748749
 40
1.476933134741544
 40
1.532952584302065
 40
1.69197263422137
 40
1.771953489018313
 40
1.824737232805136
 40
1.952905811450779
 40
2.09300857856893
 40
2.26897929033735
 40
2.400502518909719
 40
2.400502518909719
 40
2.400502518909719
 40
2.400502518909719
 10
10.40509944695063
 20
6.081652174032136
 30
0.0
 10
10.42012335523249
 20
6.110514235604437
 30
0.0
 10
10.45779575401997
 20
6.182885756581624
 30
0.0
 10
10.55497327182997
 20
6.288986306368603
 30
0.0
 10
10.63784747195937
 20
6.393789452412352
 30
0.0
 10
10.69705061158878
 20
6.526054948831411
 30
0.0
 10
10.8363719310199
 20
6.551937834382357
 30
0.0
 10
11.00714420486123
 20
6.569155166863684
 30
0.0
 10
11.06828957522464
 20
6.385410576819473
 30
0.0
 10
11.13102510766842
 20
6.226044620514873
 30
0.0
 10
11.18088112044946
 20
6.060451306410676
 30
0.0
 10
11.22698021517253
 20
5.931428175375952
 30
0.0
 10
11.13904572523494
 20
5.843369973402391
 30
0.0
 10
11.02695989266235
 20
5.870321954574971
 30
0.0
 10
10.94541399791872
 20
5.814912942584248
 30
0.0
 10
10.87105758108119
 20
5.761926452213801
 30
0.0
 10
10.7576645077724
 20
5.823899598359647
 30
0.0
 10
10.65889014318185
 20
5.925972567495835
 30
0.0
 10
10.51847325264548
 20
5.989213025764878
 30
0.0
 10
10.43906460826183
 20
6.053958734942526
 30
0.0
 10
10.40509944695063
 20
6.081652174032136
 30
0.0
 11
10.40509944695063
 21
6.081652174032136
 31
0.0
 11
10.45300151048272
 21
6.16636003229355
 31
0.0
 11
10.54512073145558
 21
6.280531505212266
 31
0.0
 11
10.65197904065149
 21
6.429691003597376
 31
0.0
 11
10.69066910702638
 21
6.494142643721062
 31
0.0
 11
10.83621748259719
 21
6.549386887325159
 31
0.0
 11
11.00018963802548
 21
6.532813654897978
 31
0.0
 11
11.05361879262345
 21
6.431532496452639
 31
0.0
 11
11.1346837242361
 21
6.206872468568981
 31
0.0
 11
11.18995527826551
 21
6.037456752046168
 31
0.0
 11
11.20285196705713
 21
5.915919375463108
 31
0.0
 11
11.16416190068225
 21
5.875406939187676
 31
0.0
 11
11.00755923575125
 21
5.84778481738563
 31
0.0
 11
10.93754859349878
 21
5.809113806208706
 31
0.0
 11
10.89148903662659
 21
5.78333317726194
 31
0.0
 11
10.76989163920759
 21
5.823845613537372
 31
0.0
 11
10.66119093058023
 21
5.912236457509319
 31
0.0
 11
10.5101153567151
 21
6.002468726579788
 31
0.0
 11
10.40509944695063
 21
6.081652174032136
 31
0.0
  0
SPLINE
  5
5D
330
1F
100
AcDbEntity
  8
0
100
AcDbSpline
210
0.0
220
0.0
230
1.0
 70
    11
 71
     3
 72
    25
 73
    21
 74
    19
 42
0.0000000001
 43
0.0000000001
 44
0.0000000001
 40
0.0
 40
0.0
 40
0.0
 40
0.0
 40
0.0973140737091426
 40
0.244014707999097
 40
0.4275010949674673
 40
0.5026737971320654
 40
0.6583537768426531
 40
0.8231613609790786
 40
0.9376713938018989
 40
1.176509521549658
 40
1.35471342074876
 40
1.47693313474154
 40
1.532952584302067
 40
1.691972634221373
 40
1.771953489018315
 40
1.824737232805141
 40
1.952905811450786
 40
2.093008578568936
 40
2.268979290337366
 40
2.400502518909736
 40
2.400502518909736
 40
2.400502518909736
 40
2.400502518909736
 10
16.13086350766656
 20
6.367124568551592
 30
0.0
 10
16.14588741594842
 20
6.395986630123879
 30
0.0
 10
16.1835598147359
 20
6.468358151101064
 30
0.0
 10
16.2807373325459
 20
6.574458700888053
 30
0.0
 10
16.36361153267531
 20
6.679261846931798
 30
0.0
 10
16.42281467230471
 20
6.811527343350861
 30
0.0
 10
16.56213599173583
 20
6.837410228901791
 30
0.0
 10
16.73290826557717
 20
6.854627561383134
 30
0.0
 10
16.79405363594058
 20
6.670882971338918
 30
0.0
 10
16.85678916838435
 20
6.511517015034313
 30
0.0
 10
16.90664518116539
 20
6.345923700930121
 30
0.0
 10
16.95274427588845
 20
6.216900569895397
 30
0.0
 10
16.86480978595088
 20
6.128842367921837
 30
0.0
 10
16.75272395337829
 20
6.155794349094399
 30
0.0
 10
16.67117805863465
 20
6.100385337103698
 30
0.0
 10
16.59682164179713
 20
6.047398846733223
 30
0.0
 10
16.48342856848834
 20
6.10937199287909
 30
0.0
 10
16.38465420389777
 20
6.211444962015269
 30
0.0
 10
16.24423731336141
 20
6.274685420284332
 30
0.0
 10
16.16482866897776
 20
6.339431129461981
 30
0.0
 10
16.13086350766656
 20
6.367124568551592
 30
0.0
 11
16.13086350766656
 21
6.367124568551581
 31
0.0
 11
16.17876557119866
 21
6.451832426812991
 31
0.0
 11
16.27088479217151
 21
6.566003899731711
 31
0.0
 11
16.37774310136742
 21
6.715163398116821
 31
0.0
 11
16.41643316774231
 21
6.77961503824051
 31
0.0
 11
16.56198154331312
 21
6.8348592818446
 31
0.0
 11
16.72595369874141
 21
6.818286049417427
 31
0.0
 11
16.77938285333938
 21
6.717004890972088
 31
0.0
 11
16.86044778495204
 21
6.492344863088419
 31
0.0
 11
16.91571933898144
 21
6.322929146565606
 31
0.0
 11
16.92861602777307
 21
6.20139176998256
 31
0.0
 11
16.88992596139818
 21
6.160879333707121
 31
0.0
 11
16.73332329646718
 21
6.133257211905068
 31
0.0
 11
16.66331265421471
 21
6.094586200728151
 31
0.0
 11
16.61725309734252
 21
6.068805571781375
 31
0.0
 11
16.49565569992352
 21
6.10931800805681
 31
0.0
 11
16.38695499129617
 21
6.197708852028757
 31
0.0
 11
16.23587941743103
 21
6.28794112109924
 31
0.0
 11
16.13086350766656
 21
6.367124568551592
 31
0.0
  0
SPLINE
  5
5E
330
1F
100
AcDbEntity
  8
0
100
AcDbSpline
210
0.0
220
0.0
230
1.0
 70
     8
 71
     3
 72
   228
 73
   224
 74
     0
 42
0.0000000001
 43
0.0000000001
 40
18.15317784637954
 40
18.15317784637954
 40
18.15317784637954
 40
18.15317784637954
 40
18.19442928707335
 40
18.40205041481418
 40
18.46826173780685
 40
18.59782096762878
 40
18.77688361933587
 40
19.09849165029282
 40
19.16892281293901
 40
19.29873072589859
 40
19.48105487587248
 40
19.75820097547687
 40
19.85941658232992
 40
19.98551136504771
 40
20.24840974574575
 40
20.32399580820001
 40
20.41090372131192
 40
20.606199399534
 40
20.91657161917655
 40
21.25328361737197
 40
21.41442767733424
 40
21.67590825737617
 40
21.81853405737403
 40
21.99185954714209
 40
22.36721041083589
 40
22.56564534107663
 40
22.6509975551746
 40
22.82630858791415
 40
22.89334660693949
 40
23.02867773077447
 40
23.13484976376452
 40
23.30510128757439
 40
23.34262598472589
 40
23.35809627099921
 40
23.3811557540393
 40
23.4942264344917
 40
23.64412762293143
 40
23.72466269926979
 40
23.81363978649746
 40
23.89758449911623
 40
23.96694636563468
 40
24.04696407279342
 40
24.14611826910752
 40
24.26749156310144
 40
24.38504785779652
 40
24.51756617473181
 40
24.70713154956148
 40
25.05319841947873
 40
25.62968594304292
 40
26.00411163148661
 40
26.29903467177612
 40
26.3691623883272
 40
26.40177499641578
 40
26.44333470333827
 40
26.5264541785357
 40
26.7095095244323
 40
26.82850941583739
 40
27.03467846951918
 40
27.15054612566465
 40
27.27311733634735
 40
27.51586380003883
 40
27.67512186410478
 40
27.84743554990889
 40
27.89178842786002
 40
27.97493820282728
 40
28.07000447315838
 40
28.13035945585698
 40
28.23914110398003
 40
28.29678986423461
 40
28.48819667081647
 40
28.55543254306902
 40
28.63999438171925
 40
28.78584842281219
 40
28.93141926164735
 40
29.05222183318691
 40
29.19152288489335
 40
29.25855599952687
 40
29.36987237062647
 40
29.52464233642757
 40
29.6672309557638
 40
29.80983040372734
 40
29.89515552255328
 40
29.94593973991536
 40
30.06851095059805
 40
30.21462334271469
 40
30.29667942640124
 40
30.44875722641494
 40
30.69653993460419
 40
30.90127829490282
 40
31.0977623717819
 40
31.26978874974954
 40
31.48253135848638
 40
31.55939631678783
 40
31.72973116725016
 40
31.80443530130693
 40
31.94230185813415
 40
32.08982358040866
 40
32.40539291456205
 40
32.56168509302563
 40
32.71760040216598
 40
32.90651645239946
 40
33.01577568207703
 40
33.19322630014767
 40
33.37886562828996
 40
33.4667746192415
 40
33.54046723158916
 40
33.61151779334858
 40
33.64613554351468
 40
33.77748430214582
 40
33.89763184280898
 40
34.0085552598112
 40
34.10088683294076
 40
34.19328531638398
 40
34.25730403084052
 40
34.32638287338468
 40
34.34901538679172
 40
34.42456057112833
 40
34.52254154128349
 40
34.59808668371133
 40
34.67107872898941
 40
34.81324747203102
 40
34.93093641518282
 40
34.99874532082801
 40
35.0339619080582
 40
35.14094039536903
 40
35.23376228892799
 40
35.52764459470864
 40
35.6674514840486
 40
35.78229873055391
 40
35.87260030731725
 40
35.94824366759961
 40
36.10157940262938
 40
36.30378282101142
 40
36.46981847846483
 40
36.57888805508424
 40
36.57888805508424
 40
36.57888805508424
 40
36.74842448002892
 40
37.06669658217092
 40
37.32487004281202
 40
37.60503870465868
 40
37.98768992162051
 40
38.32441741632163
 40
38.71335918925514
 40
39.26212528330036
 40
39.84581097672604
 40
40.31172212888715
 40
40.62672136043574
 40
40.8525666577826
 40
41.0964065814517
 40
41.43657983528021
 40
41.7336457213857
 40
41.9602838666021
 40
42.17707278237611
 40
42.48075493518943
 40
42.76071448479779
 40
42.90318723637018
 40
42.95319596551029
 40
43.01046842169831
 40
43.07757943310896
 40
43.20253712534422
 40
43.35990054649082
 40
43.51321250307345
 40
43.68397032262417
 40
43.81620903275947
 40
43.89933986670917
 40
43.97712654744997
 40
44.06312415033568
 40
44.17803503828978
 40
44.31475871506257
 40
44.42187223498746
 40
44.51405504975282
 40
44.6099771243468
 40
44.64637181207208
 40
44.77264524330293
 40
44.84545511165882
 40
44.88146253150906
 40
45.08301153942393
 40
45.17802775778486
 40
45.24744828619765
 40
45.41967143348155
 40
45.50535149223487
 40
45.5950605650106
 40
45.6477696190985
 40
45.77137068739147
 40
45.81719332433684
 40
45.94036440899272
 40
45.97270792085905
 40
46.03654225598334
 40
46.24847635442733
 40
46.45620415167755
 40
46.56222480023127
 40
46.82235841246185
 40
47.13633598511478
 40
47.45761306016625
 40
47.85706038237463
 40
48.24456077278192
 40
48.99350466463236
 40
49.59073791341296
 40
49.69652957757325
 40
50.47109658584358
 40
50.8631197471659
 40
51.16707873220555
 40
51.40089676518662
 40
51.48599006996572
 40
51.65992313329808
 40
51.9633347058123
 40
52.01526493625097
 40
52.06043487962308
 40
52.20441080562554
 40
52.28070047562463
 40
52.39562805275242
 40
52.52831231953972
 40
52.7589072984281
 40
52.85542197439233
 40
52.91093749316583
 40
52.99539825089211
 40
53.12885733840069
 40
53.2943993852902
 40
53.61721080526052
 40
53.85758948769454
 40
54.07016948883404
 40
54.21098919933289
 40
54.21098919933289
 40
54.21098919933289
 40
54.21098919933289
 10
16.16341818856827
 20
5.956859114624101
 30
0.0
 10
16.15001847552362
 20
5.957663696780279
 30
0.0
 10
16.06877649409092
 20
5.964414962598706
 30
0.0
 10
15.96595997135138
 20
5.970342460236018
 30
0.0
 10
15.85501861948519
 20
6.044204135634338
 30
0.0
 10
15.72959102183538
 20
6.0230875569708
 30
0.0
 10
15.52720704407036
 20
6.003421501975456
 30
0.0
 10
15.37550702476393
 20
5.968567538169931
 30
0.0
 10
15.1571472065818
 20
6.015020412222529
 30
0.0
 10
15.34056950934509
 20
6.109500946680729
 30
0.0
 10
15.45206786772647
 20
6.22160754558666
 30
0.0
 10
15.66017238921942
 20
6.20120914893015
 30
0.0
 10
15.80757447414043
 20
6.271679258485409
 30
0.0
 10
15.90666921896903
 20
6.402489708836046
 30
0.0
 10
15.92806794467779
 20
6.545252718982354
 30
0.0
 10
15.99866122928711
 20
6.677677229098335
 30
0.0
 10
15.90769999042378
 20
6.777736202822257
 30
0.0
 10
15.71592712007384
 20
6.79489475251044
 30
0.0
 10
15.45906955872876
 20
6.871553618202423
 30
0.0
 10
15.1898995153386
 20
6.86955385260433
 30
0.0
 10
14.98296058717312
 20
7.012337043167441
 30
0.0
 10
14.79226406162399
 20
6.996346511131697
 30
0.0
 10
14.60975193844748
 20
6.965360540342565
 30
0.0
 10
14.42155742710971
 20
6.842725710377418
 30
0.0
 10
14.25015493812085
 20
6.662007333491782
 30
0.0
 10
14.05215858733953
 20
6.60561585597108
 30
0.0
 10
13.91725659255819
 20
6.508741647321969
 30
0.0
 10
13.83558113397331
 20
6.629759367266473
 30
0.0
 10
13.70576614418485
 20
6.630049521518589
 30
0.0
 10
13.64279911955142
 20
6.53319262516058
 30
0.0
 10
13.54036339613204
 20
6.485169286676118
 30
0.0
 10
13.37110711578134
 20
6.425002396161676
 30
0.0
 10
13.38158712496362
 20
6.534181113619197
 30
0.0
 10
13.35309591147702
 20
6.526007926890727
 30
0.0
 10
13.31217235549564
 20
6.565694937751782
 30
0.0
 10
13.26003803354661
 20
6.41132212847317
 30
0.0
 10
13.13352827477315
 20
6.463867017623833
 30
0.0
 10
13.0366819044498
 20
6.51364749449846
 30
0.0
 10
13.06421594639218
 20
6.631603840142958
 30
0.0
 10
12.96037591552687
 20
6.608027640311867
 30
0.0
 10
12.89558094135403
 20
6.668572338648335
 30
0.0
 10
12.92749965688605
 20
6.745999332395125
 30
0.0
 10
13.01954298883551
 20
6.852840535213285
 30
0.0
 10
12.84367456287671
 20
6.826474929850938
 30
0.0
 10
12.77389491011144
 20
6.942985026468424
 30
0.0
 10
12.82063452278676
 20
7.088703083562151
 30
0.0
 10
12.99040012842664
 20
7.22464104280166
 30
0.0
 10
13.2818778376706
 20
7.426027307027901
 30
0.0
 10
13.68730786009561
 20
7.55936761690971
 30
0.0
 10
13.97687091877277
 20
7.833895671217906
 30
0.0
 10
14.18022449202014
 20
7.969247512606759
 30
0.0
 10
14.2723099363543
 20
8.044072746674082
 30
0.0
 10
14.32104617835438
 20
8.07127327389362
 30
0.0
 10
14.34915717601317
 20
8.007073748840586
 30
0.0
 10
14.26622364383185
 20
7.934848448483855
 30
0.0
 10
14.20414365845133
 20
7.828909381584356
 30
0.0
 10
14.15984358636715
 20
7.678659014523262
 30
0.0
 10
14.12119089905207
 20
7.506351175257528
 30
0.0
 10
14.26460997609135
 20
7.438931731888786
 30
0.0
 10
14.4105246872935
 20
7.39481404935087
 30
0.0
 10
14.58223194397935
 20
7.44674216986057
 30
0.0
 10
14.74256652269618
 20
7.53526739244921
 30
0.0
 10
14.83311850861544
 20
7.6126752362448
 30
0.0
 10
14.90664478353403
 20
7.678712818832739
 30
0.0
 10
14.99032860144514
 20
7.6632678059118
 30
0.0
 10
15.03332382071651
 20
7.595796572555713
 30
0.0
 10
15.11679188596879
 20
7.568944861862565
 30
0.0
 10
15.19226036811381
 20
7.57624361900558
 30
0.0
 10
15.29324952040557
 20
7.631760138530673
 30
0.0
 10
15.37356462852442
 20
7.688698471054742
 30
0.0
 10
15.49265450161326
 20
7.71243428658067
 30
0.0
 10
15.55504551557932
 20
7.623618103756648
 30
0.0
 10
15.68990660342675
 20
7.620059145605281
 30
0.0
 10
15.81094822487792
 20
7.67856015560023
 30
0.0
 10
15.90755072543589
 20
7.753417930931298
 30
0.0
 10
15.98343189841927
 20
7.86967416240374
 30
0.0
 10
16.07883306744139
 20
7.807739100968387
 30
0.0
 10
16.18445145806082
 20
7.776060939073499
 30
0.0
 10
16.30618481678124
 20
7.859956087412406
 30
0.0
 10
16.37450442402501
 20
7.982221870061689
 30
0.0
 10
16.49865838970469
 20
8.032502088191378
 30
0.0
 10
16.50863015280138
 20
8.135167075678509
 30
0.0
 10
16.59473008412355
 20
8.168868431381948
 30
0.0
 10
16.68852848074765
 20
8.111855057988471
 30
0.0
 10
16.80625108920753
 20
8.107071752028549
 30
0.0
 10
16.91833354371224
 20
8.1551481076206
 30
0.0
 10
17.05870550280022
 20
8.22648398240824
 30
0.0
 10
17.15759841743399
 20
8.40200441719859
 30
0.0
 10
17.2490654603929
 20
8.587200170041768
 30
0.0
 10
17.29811549040741
 20
8.762927820239536
 30
0.0
 10
17.32797005314401
 20
8.954170333563858
 30
0.0
 10
17.34190660880266
 20
9.073687118428178
 30
0.0
 10
17.36402507033174
 20
9.278117525555423
 30
0.0
 10
17.27641070120053
 20
9.083463972573241
 30
0.0
 10
17.27210399476055
 20
8.976745757815386
 30
0.0
 10
17.21573268292499
 20
8.867097684985559
 30
0.0
 10
17.14551245193306
 20
8.692374225327142
 30
0.0
 10
17.02595372767493
 20
8.523721753616499
 30
0.0
 10
16.860931060263
 20
8.410428817281019
 30
0.0
 10
16.70907991747519
 20
8.342201095883801
 30
0.0
 10
16.55482878230845
 20
8.396621018416887
 30
0.0
 10
16.42356514619111
 20
8.301194957715136
 30
0.0
 10
16.33854275509413
 20
8.180437751194443
 30
0.0
 10
16.25181321967316
 20
8.055425247793301
 30
0.0
 10
16.13859745200373
 20
8.023874021625939
 30
0.0
 10
16.05949531403688
 20
8.070295720576819
 30
0.0
 10
16.07680740862404
 20
8.132520066458461
 30
0.0
 10
16.02746120447422
 20
8.208239674529668
 30
0.0
 10
15.95795898149792
 20
8.066747204493605
 30
0.0
 10
15.87006505799333
 20
8.016157222950919
 30
0.0
 10
15.799357696739
 20
7.939891381062327
 30
0.0
 10
15.72148393036927
 20
7.868800344910336
 30
0.0
 10
15.64202816312129
 20
7.902360253983847
 30
0.0
 10
15.57003128555014
 20
7.938674144755651
 30
0.0
 10
15.58207199642766
 20
7.996986656025107
 30
0.0
 10
15.53987054870186
 20
8.041869220798439
 30
0.0
 10
15.48823863753685
 20
7.963939533404605
 30
0.0
 10
15.42798318981864
 20
7.928551866554521
 30
0.0
 10
15.36220335346371
 20
7.882791146197423
 30
0.0
 10
15.29473371905902
 20
7.811321463181627
 30
0.0
 10
15.17470718246486
 20
7.84675193332594
 30
0.0
 10
15.08464863975601
 20
7.907336804110929
 30
0.0
 10
15.08843823458186
 20
8.003325779794263
 30
0.0
 10
15.00856651230439
 20
7.996245703755768
 30
0.0
 10
14.96318169807136
 20
7.93229540149359
 30
0.0
 10
14.84404660582597
 20
7.829982870754687
 30
0.0
 10
14.73261999819726
 20
7.70073849366182
 30
0.0
 10
14.59457911228047
 20
7.59532573592919
 30
0.0
 10
14.49759376568458
 20
7.533402568803726
 30
0.0
 10
14.40192707367763
 20
7.546992471660622
 30
0.0
 10
14.32199534885024
 20
7.624947887913211
 30
0.0
 10
14.36300480485916
 20
7.775299187338102
 30
0.0
 10
14.37428627150956
 20
7.935903846254579
 30
0.0
 10
14.42418578473031
 20
8.08256815019336
 30
0.0
 10
14.43968384167322
 20
8.169034559666549
 30
0.0
 10
14.44582827769198
 20
8.203315458409999
 30
0.0
 10
14.47043126831937
 20
8.251545045026098
 30
0.0
 10
14.54122165229611
 20
8.39031642478638
 30
0.0
 10
14.63426128310509
 20
8.611875638511428
 30
0.0
 10
14.8118248333582
 20
8.823694764051168
 30
0.0
 10
14.92917939812835
 20
9.096762390915991
 30
0.0
 10
15.13454694765188
 20
9.343629622387176
 30
0.0
 10
15.33334232892508
 20
9.639285984206402
 30
0.0
 10
15.65650443944947
 20
9.893490233490378
 30
0.0
 10
16.04560799222411
 20
10.18422334595031
 30
0.0
 10
16.400784401784
 20
10.55367728657365
 30
0.0
 10
16.68974811589657
 20
10.88132585652544
 30
0.0
 10
16.87940322148895
 20
11.13970779088184
 30
0.0
 10
17.01045448454229
 20
11.3591572133657
 30
0.0
 10
17.02474458727943
 20
11.62506901341729
 30
0.0
 10
17.17058302153051
 20
11.87117365540945
 30
0.0
 10
17.29353954205601
 20
12.12170266269044
 30
0.0
 10
17.46821623939945
 20
12.28231201839013
 30
0.0
 10
17.66511750986329
 20
12.43298938238099
 30
0.0
 10
17.92974787503518
 20
12.4179821764911
 30
0.0
 10
18.17305632043102
 20
12.42126203366408
 30
0.0
 10
18.29596401182348
 20
12.34983776196534
 30
0.0
 10
18.38083593179649
 20
12.30765932941548
 30
0.0
 10
18.41205669551246
 20
12.37007279857527
 30
0.0
 10
18.43485014882328
 20
12.44252470115303
 30
0.0
 10
18.52772295260173
 20
12.51519689855108
 30
0.0
 10
18.61729256636035
 20
12.62582568720612
 30
0.0
 10
18.7802222708603
 20
12.65261536387062
 30
0.0
 10
18.92284382986355
 20
12.61627362160732
 30
0.0
 10
19.03023917721353
 20
12.54598421394417
 30
0.0
 10
19.076887756464
 20
12.46342049698728
 30
0.0
 10
19.11691823287702
 20
12.3958555468693
 30
0.0
 10
19.12925175620338
 20
12.30041839208235
 30
0.0
 10
19.06127992040857
 20
12.21369308500736
 30
0.0
 10
19.00224634725932
 20
12.09892316102713
 30
0.0
 10
18.88352502030388
 20
12.10752733476728
 30
0.0
 10
18.78941950182096
 20
12.14310838302266
 30
0.0
 10
18.76786448071652
 20
12.21586711442982
 30
0.0
 10
18.75267852388775
 20
12.3046960435437
 30
0.0
 10
18.63817960903767
 20
12.27099829206303
 30
0.0
 10
18.58745263572942
 20
12.22634997724883
 30
0.0
 10
18.50690578017002
 20
12.16225820526513
 30
0.0
 10
18.53313936102487
 20
12.03395052548581
 30
0.0
 10
18.54118206006912
 20
11.9200454263232
 30
0.0
 10
18.59397611788865
 20
11.82261860938205
 30
0.0
 10
18.67964276619071
 20
11.75918633349746
 30
0.0
 10
18.74991854928445
 20
11.67324964078521
 30
0.0
 10
18.7833447777652
 20
11.60536803995842
 30
0.0
 10
18.74547463555413
 20
11.50590904875472
 30
0.0
 10
18.66228933956892
 20
11.58435662245162
 30
0.0
 10
18.57158990867682
 20
11.58372485854026
 30
0.0
 10
18.50561190846859
 20
11.59988306490983
 30
0.0
 10
18.43695856778001
 20
11.57321135176964
 30
0.0
 10
18.40385681649437
 20
11.4681572896911
 30
0.0
 10
18.21830848222345
 20
11.45690948838131
 30
0.0
 10
18.11150456483993
 20
11.30528458826255
 30
0.0
 10
18.08664721745796
 20
11.1230525664782
 30
0.0
 10
18.09125115968842
 20
10.90503329538494
 30
0.0
 10
18.11762077443212
 20
10.6195500415969
 30
0.0
 10
18.2008935221887
 20
10.29811693478056
 30
0.0
 10
18.31583171255307
 20
9.96466751305547
 30
0.0
 10
18.50072876121154
 20
9.50163358609754
 30
0.0
 10
18.4034450482844
 20
8.93407570461694
 30
0.0
 10
18.29961917424554
 20
8.480162986555686
 30
0.0
 10
18.07944641701427
 20
8.062575035814923
 30
0.0
 10
17.95784482937803
 20
7.649001469666401
 30
0.0
 10
17.56473787306734
 20
7.370375190178148
 30
0.0
 10
17.41338558609874
 20
7.100975412742169
 30
0.0
 10
17.1128965174604
 20
7.125817958348886
 30
0.0
 10
17.14650556674282
 20
6.9478383721511
 30
0.0
 10
17.13782237356996
 20
6.775713968304856
 30
0.0
 10
17.14499288888518
 20
6.608730244929105
 30
0.0
 10
17.13451018080947
 20
6.473826252582739
 30
0.0
 10
17.19178478496734
 20
6.415636451150973
 30
0.0
 10
17.21033416650035
 20
6.332907229885858
 30
0.0
 10
17.27568304953765
 20
6.238272105496339
 30
0.0
 10
17.39014734059687
 20
6.23872103540387
 30
0.0
 10
17.51943731954981
 20
6.156384716980578
 30
0.0
 10
17.67786302161878
 20
6.139206549384191
 30
0.0
 10
17.76707839146165
 20
6.065203876203568
 30
0.0
 10
17.85076163368238
 20
6.026776622917125
 30
0.0
 10
17.77491855335977
 20
5.929731853854669
 30
0.0
 10
17.65769075635777
 20
5.901124411937626
 30
0.0
 10
17.46149931920954
 20
5.961337607159979
 30
0.0
 10
17.22686152380762
 20
5.979961133098374
 30
0.0
 10
16.98408905108884
 20
5.921486255671336
 30
0.0
 10
16.79577665117208
 20
5.899915651645759
 30
0.0
 10
16.68242992633569
 20
5.89324725104543
 30
0.0
 10
16.63748067704767
 20
5.896601184759763
 30
0.0
  0
CIRCLE
  5
5F
330
1F
100
AcDbEntity
  8
0
100
AcDbCircle
 10
12.35597997115381
 20
11.73463729464824
 30
0.0
 40
0.0950146656900102
  0
CIRCLE
  5
60
330
1F
100
AcDbEntity
  8
0
100
AcDbCircle
 10
18.08115038015682
 20
12.01744863082138
 30
0.0
 40
0.0950146656900102
  0
SPLINE
  5
61
330
1F
100
AcDbEntity
  8
0
100
AcDbSpline
210
0.0
220
0.0
230
1.0
 70
    11
 71
     3
 72
    25
 73
    21
 74
    19
 42
0.0000000001
 43
0.0000000001
 44
0.0000000001
 40
0.0
 40
0.0
 40
0.0
 40
0.0
 40
0.1776251413976404
 40
0.4453944363791603
 40
0.7803079199849381
 40
0.9175189249536384
 40
1.201678012687701
 40
1.502497506927884
 40
1.711510037144187
 40
2.147455780605092
 40
2.472727260735083
 40
2.695812094737966
 40
2.798063108080047
 40
3.088318749174674
 40
3.234305964599163
 40
3.330650918584488
 40
3.564594078468135
 40
3.820320438192244
 40
4.141515732648133
 40
4.381582057916425
 40
4.381582057916425
 40
4.381582057916425
 40
4.381582057916425
 10
25.13311883382853
 20
6.314924776148124
 30
0.0
 10
25.1605416282014
 20
6.36760603356963
 30
0.0
 10
25.22930419158369
 20
6.499704106918779
 30
0.0
 10
25.40668008063819
 20
6.693367001091802
 30
0.0
 10
25.55794845277725
 20
6.884661774040862
 30
0.0
 10
25.66601058240596
 20
7.12608294374427
 30
0.0
 10
25.92031058363316
 20
7.173326379668097
 30
0.0
 10
26.23201728885781
 20
7.204752780803348
 30
0.0
 10
26.34362452759155
 20
6.86936800505955
 30
0.0
 10
26.45813425261129
 20
6.578480988992568
 30
0.0
 10
26.54913528650309
 20
6.276227319906896
 30
0.0
 10
26.63327890423879
 20
6.040724365194438
 30
0.0
 10
26.47277410145379
 20
5.879993753674399
 30
0.0
 10
26.26818640821957
 20
5.929188585256859
 30
0.0
 10
26.11934256136215
 20
5.82805178957642
 30
0.0
 10
25.98362150323378
 20
5.731336766913314
 30
0.0
 10
25.77664773353848
 20
5.844454925751442
 30
0.0
 10
25.59635715676847
 20
6.030766369560491
 30
0.0
 10
25.34005743479109
 20
6.146197724080357
 30
0.0
 10
25.19511466187832
 20
6.264376578476519
 30
0.0
 10
25.13311883382853
 20
6.314924776148124
 30
0.0
 11
25.13311883382853
 21
6.314924776148121
 31
0.0
 11
25.22055336907941
 21
6.469540082317969
 31
0.0
 11
25.38869646521213
 21
6.677934646925109
 31
0.0
 11
25.58374248021266
 21
6.950192050007874
 31
0.0
 11
25.65436256884512
 21
7.067834146920777
 31
0.0
 11
25.92002867247811
 21
7.168670194653319
 31
0.0
 11
26.21932327790464
 21
7.138419454538471
 31
0.0
 11
26.31684628540494
 21
6.953553284578909
 31
0.0
 11
26.46481224131719
 21
6.54348650083185
 31
0.0
 11
26.56569813814114
 21
6.234255888492157
 31
0.0
 11
26.58923816768529
 21
6.012416509275674
 31
0.0
 11
26.51861807905286
 21
5.938470090761789
 31
0.0
 11
26.23277483519939
 21
5.888052066895514
 31
0.0
 11
26.10498601950759
 21
5.817466759277831
 31
0.0
 11
26.02091456930207
 21
5.770409969982608
 31
0.0
 11
25.79896563543368
 21
5.844356388496493
 31
0.0
 11
25.60055673110945
 21
6.005694163808421
 31
0.0
 11
25.3248019595054
 21
6.170393050016567
 31
0.0
 11
25.13311883382853
 21
6.314924776148124
 31
0.0
  0
CIRCLE
  5
62
330
1F
100
AcDbEntity
  8
0
100
AcDbCircle
 10
28.58919748966262
 20
16.54052126725425
 30
0.0
 40
0.157679231654241
  0
ENDSEC
  0
SECTION
  2
OBJECTS
  0
DICTIONARY
  5
C
330
0
100
AcDbDictionary
281
     1
  3
ACAD_GROUP
350
D
  3
ACAD_LAYOUT
350
1A
  3
ACAD_MLINESTYLE
350
17
  3
ACAD_PLOTSETTINGS
350
19
  3
ACAD_PLOTSTYLENAME
350
E
  3
AcDbVariableDictionary
350
63
  0
DICTIONARY
  5
D
102
{ACAD_REACTORS
330
C
102
}
330
C
100
AcDbDictionary
281
     1
  0
DICTIONARY
  5
1A
102
{ACAD_REACTORS
330
C
102
}
330
C
100
AcDbDictionary
281
     1
  3
Layout1
350
1E
  3
Layout2
350
26
  3
Model
350
22
  0
DICTIONARY
  5
17
102
{ACAD_REACTORS
330
C
102
}
330
C
100
AcDbDictionary
281
     1
  3
Standard
350
18
  0
DICTIONARY
  5
19
102
{ACAD_REACTORS
330
C
102
}
330
C
100
AcDbDictionary
281
     1
  0
ACDBDICTIONARYWDFLT
  5
E
102
{ACAD_REACTORS
330
C
102
}
330
C
100
AcDbDictionary
281
     1
  3
Normal
350
F
100
AcDbDictionaryWithDefault
340
F
  0
DICTIONARY
  5
63
102
{ACAD_REACTORS
330
C
102
}
330
C
100
AcDbDictionary
281
     1
  3
DIMASSOC
350
65
  3
HIDETEXT
350
64
  0
LAYOUT
  5
1E
102
{ACAD_REACTORS
330
1A
102
}
330
1A
100
AcDbPlotSettings
  1

  2
\\cad-lab\HP LaserJet 4V
  4

  6

 40
0.0
 41
0.0
 42
0.0
 43
0.0
 44
0.0
 45
0.0
 46
0.0
 47
0.0
 48
0.0
 49
0.0
140
0.0
141
0.0
142
1.0
143
1.0
 70
   688
 72
     0
 73
     0
 74
     5
  7

 75
    16
147
1.0
148
0.0
149
0.0
100
AcDbLayout
  1
Layout1
 70
     1
 71
     1
 10
0.0
 20
0.0
 11
12.0
 21
9.0
 12
0.0
 22
0.0
 32
0.0
 14
1.000000000000000E+20
 24
1.000000000000000E+20
 34
1.000000000000000E+20
 15
-1.000000000000000E+20
 25
-1.000000000000000E+20
 35
-1.000000000000000E+20
146
0.0
 13
0.0
 23
0.0
 33
0.0
 16
1.0
 26
0.0
 36
0.0
 17
0.0
 27
1.0
 37
0.0
 76
     0
330
1B
  0
LAYOUT
  5
26
102
{ACAD_REACTORS
330
1A
102
}
330
1A
100
AcDbPlotSettings
  1

  2
\\cad-lab\HP LaserJet 4V
  4

  6

 40
0.0
 41
0.0
 42
0.0
 43
0.0
 44
0.0
 45
0.0
 46
0.0
 47
0.0
 48
0.0
 49
0.0
140
0.0
141
0.0
142
1.0
143
1.0
 70
   688
 72
     0
 73
     0
 74
     5
  7

 75
    16
147
1.0
148
0.0
149
0.0
100
AcDbLayout
  1
Layout2
 70
     1
 71
     2
 10
0.0
 20
0.0
 11
12.0
 21
9.0
 12
0.0
 22
0.0
 32
0.0
 14
0.0
 24
0.0
 34
0.0
 15
0.0
 25
0.0
 35
0.0
146
0.0
 13
0.0
 23
0.0
 33
0.0
 16
1.0
 26
0.0
 36
0.0
 17
0.0
 27
1.0
 37
0.0
 76
     0
330
23
  0
LAYOUT
  5
22
102
{ACAD_REACTORS
330
1A
102
}
330
1A
100
AcDbPlotSettings
  1

  2
\\cad-lab\HP LaserJet 4V
  4

  6

 40
0.0
 41
0.0
 42
0.0
 43
0.0
 44
0.0
 45
0.0
 46
0.0
 47
0.0
 48
0.0
 49
0.0
140
0.0
141
0.0
142
1.0
143
1.0
 70
  1712
 72
     0
 73
     0
 74
     0
  7

 75
     0
147
1.0
148
0.0
149
0.0
100
AcDbLayout
  1
Model
 70
     1
 71
     0
 10
0.0
 20
0.0
 11
12.0
 21
9.0
 12
0.0
 22
0.0
 32
0.0
 14
0.0
 24
0.0
 34
0.0
 15
0.0
 25
0.0
 35
0.0
146
0.0
 13
0.0
 23
0.0
 33
0.0
 16
1.0
 26
0.0
 36
0.0
 17
0.0
 27
1.0
 37
0.0
 76
     0
330
1F
  0
MLINESTYLE
  5
18
102
{ACAD_REACTORS
330
17
102
}
330
17
100
AcDbMlineStyle
  2
STANDARD
 70
     0
  3

 62
   256
 51
90.0
 52
90.0
 71
     2
 49
0.5
 62
   256
  6
BYLAYER
 49
-0.5
 62
   256
  6
BYLAYER
  0
ACDBPLACEHOLDER
  5
F
102
{ACAD_REACTORS
330
E
102
}
330
E
  0
DICTIONARYVAR
  5
65
102
{ACAD_REACTORS
330
63
102
}
330
63
100
DictionaryVariables
280
     0
  1
2
  0
DICTIONARYVAR
  5
64
102
{ACAD_REACTORS
330
63
102
}
330
63
100
DictionaryVariables
280
     0
  1
1
  0
ENDSEC
  0
EOF
