0
SECTION
2
HEADER
9
$ACADVER
1
AC1006
9
$INSBASE
10
0.0
20
0.0
30
0.0
9
$EXTMIN
10
0
20
0
9
$EXTMAX
10
8.000
20
8.000
9
$LUNITS
70
2
9
$VIEWCTR
10
4.000
20
4.000
9
$VIEWSIZE
40
8.000
0
ENDSEC
0
SECTION
2
TABLES
0
TABLE
2
LAYER
70
9
0
LAYER
2
0
70
0
62
7
6
CONTINUOUS
0
LAYER
2
1
70
0
62
7
6
CONTINUOUS
0
LAYER
2
2
70
0
62
6
6
CONTINUOUS
0
LAYER
2
3
70
0
62
6
6
CONTINUOUS
0
ENDTAB
0
ENDSEC
0
SECTION
2
ENTITIES
0
POLYLINE
8
1
6
CONTINUOUS
66
1
70
1
0
VERTEX
8
1
10
3.887
20
1.364
0
VERTEX
8
1
10
3.917
20
1.351
0
VERTEX
8
1
10
3.907
20
1.304
0
VERTEX
8
1
10
3.920
20
1.279
0
VERTEX
8
1
10
3.951
20
1.263
0
VERTEX
8
1
10
4.014
20
1.253
0
VERTEX
8
1
10
4.149
20
1.254
0
VERTEX
8
1
10
4.255
20
1.262
0
VERTEX
8
1
10
4.309
20
1.267
0
VERTEX
8
1
10
4.352
20
1.261
0
VERTEX
8
1
10
4.357
20
1.248
0
VERTEX
8
1
10
4.340
20
1.232
0
VERTEX
8
1
10
4.296
20
1.220
0
VERTEX
8
1
10
3.945
20
1.202
0
VERTEX
8
1
10
3.900
20
1.201
0
VERTEX
8
1
10
3.840
20
1.189
0
VERTEX
8
1
10
3.811
20
1.163
0
VERTEX
8
1
10
3.805
20
1.143
0
VERTEX
8
1
10
3.816
20
1.120
0
VERTEX
8
1
10
3.872
20
1.094
0
VERTEX
8
1
10
3.906
20
1.076
0
VERTEX
8
1
10
3.908
20
1.056
0
VERTEX
8
1
10
3.898
20
1.045
0
VERTEX
8
1
10
3.858
20
1.034
0
VERTEX
8
1
10
3.802
20
1.033
0
VERTEX
8
1
10
3.768
20
1.035
0
VERTEX
8
1
10
3.758
20
1.072
0
VERTEX
8
1
10
3.737
20
1.078
0
VERTEX
8
1
10
3.663
20
1.078
0
VERTEX
8
1
10
3.611
20
1.073
0
VERTEX
8
1
10
3.582
20
1.078
0
VERTEX
8
1
10
3.571
20
1.100
0
VERTEX
8
1
10
3.551
20
1.188
0
VERTEX
8
1
10
3.541
20
1.222
0
VERTEX
8
1
10
3.522
20
1.273
0
VERTEX
8
1
10
3.518
20
1.298
0
VERTEX
8
1
10
3.532
20
1.307
0
VERTEX
8
1
10
3.550
20
1.314
0
VERTEX
8
1
10
3.549
20
1.341
0
VERTEX
8
1
10
3.553
20
1.356
0
VERTEX
8
1
10
3.576
20
1.358
  0
SEQEND
0
POLYLINE
8
1
6
CONTINUOUS
66
1
70
1
0
VERTEX
8
1
10
4.790
20
2.051
0
VERTEX
8
1
10
4.868
20
2.019
0
VERTEX
8
1
10
4.961
20
1.977
0
VERTEX
8
1
10
5.029
20
1.942
0
VERTEX
8
1
10
5.126
20
1.898
0
VERTEX
8
1
10
5.196
20
1.877
0
VERTEX
8
1
10
5.281
20
1.859
0
VERTEX
8
1
10
5.357
20
1.845
0
VERTEX
8
1
10
5.450
20
1.833
0
VERTEX
8
1
10
5.576
20
1.831
0
VERTEX
8
1
10
5.681
20
1.838
0
VERTEX
8
1
10
5.781
20
1.844
0
VERTEX
8
1
10
5.836
20
1.851
0
VERTEX
8
1
10
5.901
20
1.863
0
VERTEX
8
1
10
5.921
20
1.866
0
VERTEX
8
1
10
5.928
20
1.861
0
VERTEX
8
1
10
5.942
20
1.821
0
VERTEX
8
1
10
5.938
20
1.802
0
VERTEX
8
1
10
5.909
20
1.794
0
VERTEX
8
1
10
5.867
20
1.802
0
VERTEX
8
1
10
5.854
20
1.806
0
VERTEX
8
1
10
5.825
20
1.790
0
VERTEX
8
1
10
5.809
20
1.792
0
VERTEX
8
1
10
5.791
20
1.815
0
VERTEX
8
1
10
5.779
20
1.827
0
VERTEX
8
1
10
5.757
20
1.826
0
VERTEX
8
1
10
5.745
20
1.805
0
VERTEX
8
1
10
5.736
20
1.772
0
VERTEX
8
1
10
5.720
20
1.768
0
VERTEX
8
1
10
5.687
20
1.768
0
VERTEX
8
1
10
5.655
20
1.735
0
VERTEX
8
1
10
5.631
20
1.721
0
VERTEX
8
1
10
5.592
20
1.723
0
VERTEX
8
1
10
5.573
20
1.728
0
VERTEX
8
1
10
5.583
20
1.772
0
VERTEX
8
1
10
5.582
20
1.796
0
VERTEX
8
1
10
5.566
20
1.797
0
VERTEX
8
1
10
5.540
20
1.782
0
VERTEX
8
1
10
5.484
20
1.708
0
VERTEX
8
1
10
5.474
20
1.696
0
VERTEX
8
1
10
5.438
20
1.701
0
VERTEX
8
1
10
5.411
20
1.690
0
VERTEX
8
1
10
5.390
20
1.683
0
VERTEX
8
1
10
5.358
20
1.724
0
VERTEX
8
1
10
5.339
20
1.728
0
VERTEX
8
1
10
5.327
20
1.717
0
VERTEX
8
1
10
5.330
20
1.680
0
VERTEX
8
1
10
5.331
20
1.654
0
VERTEX
8
1
10
5.314
20
1.649
0
VERTEX
8
1
10
5.246
20
1.643
0
VERTEX
8
1
10
5.201
20
1.617
0
VERTEX
8
1
10
5.172
20
1.604
0
VERTEX
8
1
10
5.149
20
1.616
0
VERTEX
8
1
10
5.124
20
1.630
0
VERTEX
8
1
10
5.085
20
1.609
0
VERTEX
8
1
10
5.065
20
1.615
0
VERTEX
8
1
10
5.053
20
1.623
0
VERTEX
8
1
10
5.012
20
1.610
0
VERTEX
8
1
10
4.986
20
1.620
0
VERTEX
8
1
10
4.955
20
1.628
0
VERTEX
8
1
10
4.945
20
1.603
0
VERTEX
8
1
10
4.932
20
1.585
0
VERTEX
8
1
10
4.911
20
1.578
0
VERTEX
8
1
10
4.869
20
1.573
0
VERTEX
8
1
10
4.831
20
1.588
0
VERTEX
8
1
10
4.813
20
1.594
0
VERTEX
8
1
10
4.796
20
1.583
0
VERTEX
8
1
10
4.770
20
1.557
0
VERTEX
8
1
10
4.752
20
1.535
0
VERTEX
8
1
10
4.741
20
1.516
0
VERTEX
8
1
10
4.727
20
1.516
0
VERTEX
8
1
10
4.682
20
1.544
0
VERTEX
8
1
10
4.652
20
1.551
0
VERTEX
8
1
10
4.616
20
1.538
0
VERTEX
8
1
10
4.577
20
1.522
0
VERTEX
8
1
10
4.536
20
1.524
0
VERTEX
8
1
10
4.499
20
1.525
0
VERTEX
8
1
10
4.464
20
1.510
0
VERTEX
8
1
10
4.449
20
1.513
0
VERTEX
8
1
10
4.443
20
1.537
0
VERTEX
8
1
10
4.438
20
1.553
0
VERTEX
8
1
10
4.420
20
1.563
0
VERTEX
8
1
10
4.398
20
1.550
0
VERTEX
8
1
10
4.365
20
1.526
0
VERTEX
8
1
10
4.348
20
1.543
0
VERTEX
8
1
10
4.332
20
1.549
0
VERTEX
8
1
10
4.310
20
1.535
0
VERTEX
8
1
10
4.292
20
1.523
0
VERTEX
8
1
10
4.280
20
1.527
0
VERTEX
8
1
10
4.282
20
1.586
0
VERTEX
8
1
10
4.276
20
1.614
0
VERTEX
8
1
10
4.260
20
1.616
0
VERTEX
8
1
10
4.236
20
1.596
0
VERTEX
8
1
10
4.203
20
1.555
0
VERTEX
8
1
10
4.170
20
1.521
0
VERTEX
8
1
10
4.144
20
1.517
0
VERTEX
8
1
10
4.116
20
1.536
0
VERTEX
8
1
10
4.083
20
1.565
0
VERTEX
8
1
10
4.064
20
1.569
0
VERTEX
8
1
10
4.047
20
1.548
0
VERTEX
8
1
10
4.025
20
1.522
0
VERTEX
8
1
10
4.000
20
1.522
0
VERTEX
8
1
10
3.942
20
1.545
0
VERTEX
8
1
10
3.897
20
1.578
0
VERTEX
8
1
10
3.885
20
1.599
0
VERTEX
8
1
10
3.897
20
1.612
0
VERTEX
8
1
10
3.907
20
1.616
0
VERTEX
8
1
10
3.976
20
1.636
0
VERTEX
8
1
10
4.013
20
1.646
0
VERTEX
8
1
10
4.122
20
1.684
0
VERTEX
8
1
10
4.325
20
1.777
0
VERTEX
8
1
10
4.565
20
1.913
0
VERTEX
8
1
10
4.595
20
1.933
0
VERTEX
8
1
10
4.678
20
1.993
0
VERTEX
8
1
10
4.744
20
2.036
0
VERTEX
8
1
10
4.774
20
2.050
  0
SEQEND
0
POLYLINE
8
1
6
CONTINUOUS
66
1
70
1
0
VERTEX
8
1
10
8.161
20
2.077
0
VERTEX
8
1
10
8.166
20
2.014
0
VERTEX
8
1
10
8.164
20
1.988
0
VERTEX
8
1
10
8.164
20
1.967
0
VERTEX
8
1
10
8.172
20
1.960
0
VERTEX
8
1
10
8.215
20
2.012
0
VERTEX
8
1
10
8.242
20
2.033
0
VERTEX
8
1
10
8.258
20
2.030
0
VERTEX
8
1
10
8.262
20
2.007
0
VERTEX
8
1
10
8.260
20
1.996
0
VERTEX
8
1
10
8.258
20
1.969
0
VERTEX
8
1
10
8.274
20
1.962
0
VERTEX
8
1
10
8.314
20
1.942
0
VERTEX
8
1
10
8.338
20
1.951
0
VERTEX
8
1
10
8.367
20
1.976
0
VERTEX
8
1
10
8.403
20
2.020
0
VERTEX
8
1
10
8.426
20
2.045
0
VERTEX
8
1
10
8.443
20
2.056
0
VERTEX
8
1
10
8.453
20
2.048
0
VERTEX
8
1
10
8.455
20
2.007
0
VERTEX
8
1
10
8.456
20
1.960
0
VERTEX
8
1
10
8.472
20
1.938
0
VERTEX
8
1
10
8.493
20
1.946
0
VERTEX
8
1
10
8.573
20
2.018
0
VERTEX
8
1
10
8.610
20
2.030
0
VERTEX
8
1
10
8.622
20
2.021
0
VERTEX
8
1
10
8.605
20
1.982
0
VERTEX
8
1
10
8.602
20
1.969
0
VERTEX
8
1
10
8.616
20
1.973
0
VERTEX
8
1
10
8.640
20
1.982
0
VERTEX
8
1
10
8.658
20
1.980
0
VERTEX
8
1
10
8.664
20
1.955
0
VERTEX
8
1
10
8.670
20
1.936
0
VERTEX
8
1
10
8.691
20
1.938
0
VERTEX
8
1
10
8.709
20
1.943
0
VERTEX
8
1
10
8.807
20
1.951
0
VERTEX
8
1
10
8.830
20
1.962
0
VERTEX
8
1
10
8.834
20
2.035
0
VERTEX
8
1
10
8.845
20
2.051
0
VERTEX
8
1
10
8.860
20
2.048
0
VERTEX
8
1
10
8.873
20
2.017
0
VERTEX
8
1
10
8.882
20
1.987
0
VERTEX
8
1
10
8.893
20
1.988
0
VERTEX
8
1
10
8.917
20
2.015
0
VERTEX
8
1
10
8.944
20
2.033
0
VERTEX
8
1
10
8.955
20
2.025
0
VERTEX
8
1
10
8.955
20
1.997
0
VERTEX
8
1
10
8.956
20
1.981
0
VERTEX
8
1
10
8.996
20
1.987
0
VERTEX
8
1
10
9.058
20
1.975
0
VERTEX
8
1
10
9.165
20
1.968
0
VERTEX
8
1
10
9.212
20
1.961
0
VERTEX
8
1
10
9.233
20
1.948
0
VERTEX
8
1
10
9.229
20
1.930
0
VERTEX
8
1
10
9.200
20
1.912
0
VERTEX
8
1
10
9.065
20
1.876
0
VERTEX
8
1
10
9.029
20
1.867
0
VERTEX
8
1
10
8.982
20
1.852
0
VERTEX
8
1
10
8.972
20
1.839
0
VERTEX
8
1
10
8.979
20
1.812
0
VERTEX
8
1
10
8.973
20
1.767
0
VERTEX
8
1
10
8.942
20
1.748
0
VERTEX
8
1
10
8.868
20
1.738
0
VERTEX
8
1
10
8.812
20
1.738
0
VERTEX
8
1
10
8.667
20
1.730
0
VERTEX
8
1
10
8.509
20
1.701
0
VERTEX
8
1
10
8.401
20
1.672
0
VERTEX
8
1
10
8.303
20
1.647
0
VERTEX
8
1
10
8.259
20
1.653
0
VERTEX
8
1
10
8.235
20
1.676
0
VERTEX
8
1
10
8.239
20
1.710
0
VERTEX
8
1
10
8.274
20
1.734
0
VERTEX
8
1
10
8.386
20
1.766
0
VERTEX
8
1
10
8.419
20
1.775
0
VERTEX
8
1
10
8.439
20
1.789
0
VERTEX
8
1
10
8.435
20
1.804
0
VERTEX
8
1
10
8.409
20
1.813
0
VERTEX
8
1
10
8.307
20
1.796
0
VERTEX
8
1
10
8.143
20
1.723
0
VERTEX
8
1
10
8.033
20
1.680
0
VERTEX
8
1
10
7.957
20
1.670
0
VERTEX
8
1
10
7.894
20
1.684
0
VERTEX
8
1
10
7.833
20
1.689
0
VERTEX
8
1
10
7.758
20
1.681
0
VERTEX
8
1
10
7.591
20
1.650
0
VERTEX
8
1
10
7.449
20
1.626
0
VERTEX
8
1
10
7.375
20
1.619
0
VERTEX
8
1
10
7.332
20
1.622
0
VERTEX
8
1
10
7.309
20
1.636
0
VERTEX
8
1
10
7.309
20
1.649
0
VERTEX
8
1
10
7.335
20
1.662
0
VERTEX
8
1
10
7.364
20
1.668
0
VERTEX
8
1
10
7.439
20
1.697
0
VERTEX
8
1
10
7.573
20
1.784
0
VERTEX
8
1
10
7.574
20
1.813
0
VERTEX
8
1
10
7.586
20
1.825
0
VERTEX
8
1
10
7.616
20
1.835
0
VERTEX
8
1
10
7.665
20
1.846
0
VERTEX
8
1
10
7.689
20
1.852
0
VERTEX
8
1
10
7.705
20
1.863
0
VERTEX
8
1
10
7.688
20
1.900
0
VERTEX
8
1
10
7.697
20
1.914
0
VERTEX
8
1
10
7.740
20
1.918
0
VERTEX
8
1
10
7.783
20
1.901
0
VERTEX
8
1
10
7.793
20
1.902
0
VERTEX
8
1
10
7.788
20
1.920
0
VERTEX
8
1
10
7.778
20
1.951
0
VERTEX
8
1
10
7.777
20
1.983
0
VERTEX
8
1
10
7.789
20
1.996
0
VERTEX
8
1
10
7.810
20
1.986
0
VERTEX
8
1
10
7.839
20
1.946
0
VERTEX
8
1
10
7.860
20
1.882
0
VERTEX
8
1
10
7.873
20
1.861
0
VERTEX
8
1
10
7.891
20
1.863
0
VERTEX
8
1
10
7.941
20
1.933
0
VERTEX
8
1
10
7.966
20
1.947
0
VERTEX
8
1
10
7.976
20
1.943
0
VERTEX
8
1
10
7.992
20
1.896
0
VERTEX
8
1
10
8.002
20
1.885
0
VERTEX
8
1
10
8.018
20
1.897
0
VERTEX
8
1
10
8.029
20
1.907
0
VERTEX
8
1
10
8.066
20
1.910
0
VERTEX
8
1
10
8.099
20
1.918
0
VERTEX
8
1
10
8.125
20
1.955
0
VERTEX
8
1
10
8.128
20
2.031
0
VERTEX
8
1
10
8.129
20
2.077
0
VERTEX
8
1
10
8.141
20
2.093
  0
SEQEND
0
POLYLINE
8
1
6
CONTINUOUS
66
1
70
1
0
VERTEX
8
1
10
6.137
20
2.210
0
VERTEX
8
1
10
6.206
20
2.185
0
VERTEX
8
1
10
6.273
20
2.150
0
VERTEX
8
1
10
6.303
20
2.131
0
VERTEX
8
1
10
6.309
20
2.109
0
VERTEX
8
1
10
6.300
20
2.094
0
VERTEX
8
1
10
6.267
20
2.083
0
VERTEX
8
1
10
6.231
20
2.072
0
VERTEX
8
1
10
6.214
20
2.025
0
VERTEX
8
1
10
6.195
20
2.016
0
VERTEX
8
1
10
6.163
20
2.025
0
VERTEX
8
1
10
6.022
20
2.090
0
VERTEX
8
1
10
5.999
20
2.126
0
VERTEX
8
1
10
6.010
20
2.156
0
VERTEX
8
1
10
6.050
20
2.189
0
VERTEX
8
1
10
6.112
20
2.210
  0
SEQEND
0
POLYLINE
8
1
6
CONTINUOUS
66
1
70
1
0
VERTEX
8
1
10
7.156
20
2.334
0
VERTEX
8
1
10
7.228
20
2.324
0
VERTEX
8
1
10
7.325
20
2.310
0
VERTEX
8
1
10
7.359
20
2.305
0
VERTEX
8
1
10
7.484
20
2.301
0
VERTEX
8
1
10
7.521
20
2.286
0
VERTEX
8
1
10
7.555
20
2.256
0
VERTEX
8
1
10
7.558
20
2.233
0
VERTEX
8
1
10
7.548
20
2.229
0
VERTEX
8
1
10
7.508
20
2.245
0
VERTEX
8
1
10
7.483
20
2.259
0
VERTEX
8
1
10
7.466
20
2.264
0
VERTEX
8
1
10
7.441
20
2.262
0
VERTEX
8
1
10
7.439
20
2.247
0
VERTEX
8
1
10
7.515
20
2.192
0
VERTEX
8
1
10
7.527
20
2.176
0
VERTEX
8
1
10
7.514
20
2.161
0
VERTEX
8
1
10
7.488
20
2.157
0
VERTEX
8
1
10
7.419
20
2.193
0
VERTEX
8
1
10
7.369
20
2.223
0
VERTEX
8
1
10
7.348
20
2.228
0
VERTEX
8
1
10
7.339
20
2.212
0
VERTEX
8
1
10
7.387
20
2.160
0
VERTEX
8
1
10
7.391
20
2.144
0
VERTEX
8
1
10
7.385
20
2.139
0
VERTEX
8
1
10
7.350
20
2.157
0
VERTEX
8
1
10
7.332
20
2.156
0
VERTEX
8
1
10
7.322
20
2.150
0
VERTEX
8
1
10
7.289
20
2.161
0
VERTEX
8
1
10
7.274
20
2.158
0
VERTEX
8
1
10
7.265
20
2.134
0
VERTEX
8
1
10
7.259
20
2.117
0
VERTEX
8
1
10
7.244
20
2.110
0
VERTEX
8
1
10
7.206
20
2.142
0
VERTEX
8
1
10
7.191
20
2.154
0
VERTEX
8
1
10
7.135
20
2.175
0
VERTEX
8
1
10
7.104
20
2.171
0
VERTEX
8
1
10
7.094
20
2.157
0
VERTEX
8
1
10
7.128
20
2.134
0
VERTEX
8
1
10
7.161
20
2.098
0
VERTEX
8
1
10
7.156
20
2.080
0
VERTEX
8
1
10
7.151
20
2.078
0
VERTEX
8
1
10
7.104
20
2.102
0
VERTEX
8
1
10
7.083
20
2.095
0
VERTEX
8
1
10
7.065
20
2.088
0
VERTEX
8
1
10
6.992
20
2.150
0
VERTEX
8
1
10
6.968
20
2.156
0
VERTEX
8
1
10
6.957
20
2.146
0
VERTEX
8
1
10
6.978
20
2.084
0
VERTEX
8
1
10
6.967
20
2.066
0
VERTEX
8
1
10
6.940
20
2.067
0
VERTEX
8
1
10
6.876
20
2.084
0
VERTEX
8
1
10
6.787
20
2.103
0
VERTEX
8
1
10
6.753
20
2.100
0
VERTEX
8
1
10
6.742
20
2.084
0
VERTEX
8
1
10
6.747
20
2.069
0
VERTEX
8
1
10
6.796
20
2.056
0
VERTEX
8
1
10
6.809
20
2.047
0
VERTEX
8
1
10
6.798
20
2.041
0
VERTEX
8
1
10
6.771
20
2.023
0
VERTEX
8
1
10
6.751
20
2.011
0
VERTEX
8
1
10
6.727
20
2.022
0
VERTEX
8
1
10
6.690
20
2.040
0
VERTEX
8
1
10
6.668
20
2.010
0
VERTEX
8
1
10
6.647
20
2.006
0
VERTEX
8
1
10
6.611
20
2.018
0
VERTEX
8
1
10
6.594
20
2.025
0
VERTEX
8
1
10
6.558
20
2.030
0
VERTEX
8
1
10
6.539
20
2.018
0
VERTEX
8
1
10
6.540
20
1.994
0
VERTEX
8
1
10
6.546
20
1.976
0
VERTEX
8
1
10
6.538
20
1.966
0
VERTEX
8
1
10
6.486
20
1.970
0
VERTEX
8
1
10
6.464
20
1.954
0
VERTEX
8
1
10
6.454
20
1.945
0
VERTEX
8
1
10
6.404
20
1.953
0
VERTEX
8
1
10
6.378
20
1.937
0
VERTEX
8
1
10
6.352
20
1.921
0
VERTEX
8
1
10
6.292
20
1.918
0
VERTEX
8
1
10
6.260
20
1.912
0
VERTEX
8
1
10
6.247
20
1.889
0
VERTEX
8
1
10
6.240
20
1.873
0
VERTEX
8
1
10
6.225
20
1.885
0
VERTEX
8
1
10
6.206
20
1.891
0
VERTEX
8
1
10
6.188
20
1.873
0
VERTEX
8
1
10
6.175
20
1.857
0
VERTEX
8
1
10
6.159
20
1.853
0
VERTEX
8
1
10
6.133
20
1.887
0
VERTEX
8
1
10
6.113
20
1.900
0
VERTEX
8
1
10
6.100
20
1.893
0
VERTEX
8
1
10
6.110
20
1.861
0
VERTEX
8
1
10
6.113
20
1.842
0
VERTEX
8
1
10
6.100
20
1.833
0
VERTEX
8
1
10
6.039
20
1.847
0
VERTEX
8
1
10
6.002
20
1.839
0
VERTEX
8
1
10
5.985
20
1.847
0
VERTEX
8
1
10
5.970
20
1.868
0
VERTEX
8
1
10
5.980
20
1.884
0
VERTEX
8
1
10
6.013
20
1.896
0
VERTEX
8
1
10
6.168
20
1.954
0
VERTEX
8
1
10
6.254
20
1.993
0
VERTEX
8
1
10
6.405
20
2.067
0
VERTEX
8
1
10
6.471
20
2.091
0
VERTEX
8
1
10
6.550
20
2.117
0
VERTEX
8
1
10
6.939
20
2.285
0
VERTEX
8
1
10
7.045
20
2.323
0
VERTEX
8
1
10
7.124
20
2.337
  0
SEQEND
0
POLYLINE
8
1
6
CONTINUOUS
66
1
70
1
0
VERTEX
8
1
10
3.508
20
2.716
0
VERTEX
8
1
10
3.479
20
2.775
0
VERTEX
8
1
10
3.462
20
2.825
0
VERTEX
8
1
10
3.462
20
2.842
0
VERTEX
8
1
10
3.475
20
2.837
0
VERTEX
8
1
10
3.490
20
2.799
0
VERTEX
8
1
10
3.507
20
2.760
0
VERTEX
8
1
10
3.537
20
2.717
0
VERTEX
8
1
10
3.586
20
2.665
0
VERTEX
8
1
10
3.609
20
2.643
0
VERTEX
8
1
10
3.628
20
2.623
0
VERTEX
8
1
10
3.632
20
2.610
0
VERTEX
8
1
10
3.613
20
2.592
0
VERTEX
8
1
10
3.614
20
2.575
0
VERTEX
8
1
10
3.664
20
2.521
0
VERTEX
8
1
10
3.677
20
2.496
0
VERTEX
8
1
10
3.669
20
2.482
0
VERTEX
8
1
10
3.627
20
2.480
0
VERTEX
8
1
10
3.605
20
2.474
0
VERTEX
8
1
10
3.616
20
2.428
0
VERTEX
8
1
10
3.608
20
2.415
0
VERTEX
8
1
10
3.580
20
2.414
0
VERTEX
8
1
10
3.552
20
2.414
0
VERTEX
8
1
10
3.539
20
2.401
0
VERTEX
8
1
10
3.544
20
2.367
0
VERTEX
8
1
10
3.553
20
2.306
0
VERTEX
8
1
10
3.559
20
2.248
0
VERTEX
8
1
10
3.573
20
2.227
0
VERTEX
8
1
10
3.611
20
2.213
0
VERTEX
8
1
10
3.652
20
2.190
0
VERTEX
8
1
10
3.735
20
2.146
0
VERTEX
8
1
10
3.789
20
2.126
0
VERTEX
8
1
10
3.810
20
2.112
0
VERTEX
8
1
10
3.803
20
2.092
0
VERTEX
8
1
10
3.746
20
2.078
0
VERTEX
8
1
10
3.717
20
2.065
0
VERTEX
8
1
10
3.714
20
2.046
0
VERTEX
8
1
10
3.720
20
2.026
0
VERTEX
8
1
10
3.718
20
2.000
0
VERTEX
8
1
10
3.732
20
1.985
0
VERTEX
8
1
10
3.763
20
1.961
0
VERTEX
8
1
10
3.782
20
1.946
0
VERTEX
8
1
10
3.795
20
1.926
0
VERTEX
8
1
10
3.786
20
1.908
0
VERTEX
8
1
10
3.727
20
1.885
0
VERTEX
8
1
10
3.698
20
1.872
0
VERTEX
8
1
10
3.690
20
1.858
0
VERTEX
8
1
10
3.720
20
1.823
0
VERTEX
8
1
10
3.726
20
1.788
0
VERTEX
8
1
10
3.735
20
1.779
0
VERTEX
8
1
10
3.782
20
1.732
0
VERTEX
8
1
10
3.802
20
1.703
0
VERTEX
8
1
10
3.798
20
1.691
0
VERTEX
8
1
10
3.786
20
1.690
0
VERTEX
8
1
10
3.753
20
1.727
0
VERTEX
8
1
10
3.710
20
1.764
0
VERTEX
8
1
10
3.694
20
1.795
0
VERTEX
8
1
10
3.669
20
1.839
0
VERTEX
8
1
10
3.661
20
1.862
0
VERTEX
8
1
10
3.676
20
1.886
0
VERTEX
8
1
10
3.742
20
1.916
0
VERTEX
8
1
10
3.753
20
1.933
0
VERTEX
8
1
10
3.722
20
1.957
0
VERTEX
8
1
10
3.690
20
1.989
0
VERTEX
8
1
10
3.690
20
2.016
0
VERTEX
8
1
10
3.684
20
2.071
0
VERTEX
8
1
10
3.699
20
2.088
0
VERTEX
8
1
10
3.736
20
2.102
0
VERTEX
8
1
10
3.746
20
2.112
0
VERTEX
8
1
10
3.721
20
2.124
0
VERTEX
8
1
10
3.652
20
2.159
0
VERTEX
8
1
10
3.623
20
2.178
0
VERTEX
8
1
10
3.577
20
2.199
0
VERTEX
8
1
10
3.543
20
2.219
0
VERTEX
8
1
10
3.532
20
2.249
0
VERTEX
8
1
10
3.528
20
2.297
0
VERTEX
8
1
10
3.514
20
2.387
0
VERTEX
8
1
10
3.517
20
2.424
0
VERTEX
8
1
10
3.542
20
2.436
0
VERTEX
8
1
10
3.574
20
2.446
0
VERTEX
8
1
10
3.571
20
2.478
0
VERTEX
8
1
10
3.576
20
2.494
0
VERTEX
8
1
10
3.603
20
2.505
0
VERTEX
8
1
10
3.622
20
2.519
0
VERTEX
8
1
10
3.606
20
2.541
0
VERTEX
8
1
10
3.584
20
2.580
0
VERTEX
8
1
10
3.589
20
2.612
0
VERTEX
8
1
10
3.589
20
2.625
0
VERTEX
8
1
10
3.569
20
2.652
0
VERTEX
8
1
10
3.517
20
2.703
  0
SEQEND
0
POLYLINE
8
1
6
CONTINUOUS
66
1
70
1
0
VERTEX
8
1
10
9.902
20
3.002
0
VERTEX
8
1
10
9.996
20
2.965
0
VERTEX
8
1
10
10.050
20
2.938
0
VERTEX
8
1
10
10.095
20
2.920
0
VERTEX
8
1
10
10.223
20
2.886
0
VERTEX
8
1
10
10.308
20
2.879
0
VERTEX
8
1
10
10.389
20
2.892
0
VERTEX
8
1
10
10.492
20
2.909
0
VERTEX
8
1
10
10.582
20
2.906
0
VERTEX
8
1
10
10.670
20
2.884
0
VERTEX
8
1
10
10.729
20
2.864
0
VERTEX
8
1
10
10.768
20
2.852
0
VERTEX
8
1
10
10.787
20
2.840
0
VERTEX
8
1
10
10.787
20
2.819
0
VERTEX
8
1
10
10.777
20
2.781
0
VERTEX
8
1
10
10.765
20
2.725
0
VERTEX
8
1
10
10.755
20
2.714
0
VERTEX
8
1
10
10.733
20
2.747
0
VERTEX
8
1
10
10.713
20
2.761
0
VERTEX
8
1
10
10.697
20
2.749
0
VERTEX
8
1
10
10.686
20
2.725
0
VERTEX
8
1
10
10.681
20
2.630
0
VERTEX
8
1
10
10.677
20
2.614
0
VERTEX
8
1
10
10.638
20
2.637
0
VERTEX
8
1
10
10.610
20
2.612
0
VERTEX
8
1
10
10.612
20
2.557
0
VERTEX
8
1
10
10.620
20
2.498
0
VERTEX
8
1
10
10.616
20
2.481
0
VERTEX
8
1
10
10.594
20
2.489
0
VERTEX
8
1
10
10.541
20
2.538
0
VERTEX
8
1
10
10.499
20
2.562
0
VERTEX
8
1
10
10.465
20
2.558
0
VERTEX
8
1
10
10.430
20
2.534
0
VERTEX
8
1
10
10.420
20
2.517
0
VERTEX
8
1
10
10.431
20
2.509
0
VERTEX
8
1
10
10.455
20
2.521
0
VERTEX
8
1
10
10.482
20
2.531
0
VERTEX
8
1
10
10.501
20
2.515
0
VERTEX
8
1
10
10.510
20
2.472
0
VERTEX
8
1
10
10.501
20
2.437
0
VERTEX
8
1
10
10.476
20
2.433
0
VERTEX
8
1
10
10.427
20
2.461
0
VERTEX
8
1
10
10.378
20
2.490
0
VERTEX
8
1
10
10.358
20
2.490
0
VERTEX
8
1
10
10.355
20
2.473
0
VERTEX
8
1
10
10.396
20
2.408
0
VERTEX
8
1
10
10.404
20
2.383
0
VERTEX
8
1
10
10.390
20
2.371
0
VERTEX
8
1
10
10.354
20
2.368
0
VERTEX
8
1
10
10.343
20
2.369
0
VERTEX
8
1
10
10.286
20
2.388
0
VERTEX
8
1
10
10.262
20
2.389
0
VERTEX
8
1
10
10.234
20
2.325
0
VERTEX
8
1
10
10.216
20
2.307
0
VERTEX
8
1
10
10.202
20
2.314
0
VERTEX
8
1
10
10.189
20
2.370
0
VERTEX
8
1
10
10.187
20
2.384
0
VERTEX
8
1
10
10.172
20
2.405
0
VERTEX
8
1
10
10.150
20
2.395
0
VERTEX
8
1
10
10.096
20
2.344
0
VERTEX
8
1
10
10.060
20
2.312
0
VERTEX
8
1
10
10.035
20
2.289
0
VERTEX
8
1
10
10.016
20
2.284
0
VERTEX
8
1
10
9.989
20
2.300
0
VERTEX
8
1
10
9.991
20
2.361
0
VERTEX
8
1
10
9.979
20
2.375
0
VERTEX
8
1
10
9.958
20
2.370
0
VERTEX
8
1
10
9.898
20
2.308
0
VERTEX
8
1
10
9.878
20
2.289
0
VERTEX
8
1
10
9.870
20
2.295
0
VERTEX
8
1
10
9.872
20
2.343
0
VERTEX
8
1
10
9.894
20
2.387
0
VERTEX
8
1
10
9.944
20
2.433
0
VERTEX
8
1
10
9.986
20
2.480
0
VERTEX
8
1
10
9.997
20
2.511
0
VERTEX
8
1
10
9.985
20
2.530
0
VERTEX
8
1
10
9.953
20
2.530
0
VERTEX
8
1
10
9.903
20
2.492
0
VERTEX
8
1
10
9.893
20
2.485
0
VERTEX
8
1
10
9.881
20
2.490
0
VERTEX
8
1
10
9.883
20
2.550
0
VERTEX
8
1
10
9.899
20
2.628
0
VERTEX
8
1
10
9.909
20
2.662
0
VERTEX
8
1
10
9.931
20
2.689
0
VERTEX
8
1
10
9.955
20
2.714
0
VERTEX
8
1
10
9.964
20
2.724
0
VERTEX
8
1
10
10.010
20
2.715
0
VERTEX
8
1
10
10.024
20
2.727
0
VERTEX
8
1
10
10.028
20
2.738
0
VERTEX
8
1
10
9.998
20
2.802
0
VERTEX
8
1
10
10.022
20
2.854
0
VERTEX
8
1
10
10.025
20
2.880
0
VERTEX
8
1
10
10.007
20
2.893
0
VERTEX
8
1
10
9.984
20
2.892
0
VERTEX
8
1
10
9.943
20
2.840
0
VERTEX
8
1
10
9.919
20
2.829
0
VERTEX
8
1
10
9.880
20
2.821
0
VERTEX
8
1
10
9.848
20
2.795
0
VERTEX
8
1
10
9.845
20
2.773
0
VERTEX
8
1
10
9.864
20
2.760
0
VERTEX
8
1
10
9.891
20
2.752
0
VERTEX
8
1
10
9.901
20
2.739
0
VERTEX
8
1
10
9.892
20
2.711
0
VERTEX
8
1
10
9.877
20
2.669
0
VERTEX
8
1
10
9.867
20
2.639
0
VERTEX
8
1
10
9.860
20
2.628
0
VERTEX
8
1
10
9.846
20
2.638
0
VERTEX
8
1
10
9.817
20
2.665
0
VERTEX
8
1
10
9.802
20
2.675
0
VERTEX
8
1
10
9.788
20
2.673
0
VERTEX
8
1
10
9.785
20
2.649
0
VERTEX
8
1
10
9.803
20
2.595
0
VERTEX
8
1
10
9.824
20
2.551
0
VERTEX
8
1
10
9.837
20
2.480
0
VERTEX
8
1
10
9.833
20
2.368
0
VERTEX
8
1
10
9.832
20
2.355
0
VERTEX
8
1
10
9.830
20
2.326
0
VERTEX
8
1
10
9.831
20
2.300
0
VERTEX
8
1
10
9.825
20
2.284
0
VERTEX
8
1
10
9.803
20
2.286
0
VERTEX
8
1
10
9.774
20
2.305
0
VERTEX
8
1
10
9.756
20
2.342
0
VERTEX
8
1
10
9.739
20
2.366
0
VERTEX
8
1
10
9.724
20
2.363
0
VERTEX
8
1
10
9.706
20
2.336
0
VERTEX
8
1
10
9.698
20
2.327
0
VERTEX
8
1
10
9.691
20
2.339
0
VERTEX
8
1
10
9.678
20
2.403
0
VERTEX
8
1
10
9.663
20
2.439
0
VERTEX
8
1
10
9.646
20
2.445
0
VERTEX
8
1
10
9.635
20
2.431
0
VERTEX
8
1
10
9.646
20
2.366
0
VERTEX
8
1
10
9.660
20
2.310
0
VERTEX
8
1
10
9.664
20
2.277
0
VERTEX
8
1
10
9.654
20
2.266
0
VERTEX
8
1
10
9.626
20
2.270
0
VERTEX
8
1
10
9.600
20
2.281
0
VERTEX
8
1
10
9.580
20
2.300
0
VERTEX
8
1
10
9.561
20
2.304
0
VERTEX
8
1
10
9.529
20
2.295
0
VERTEX
8
1
10
9.499
20
2.293
0
VERTEX
8
1
10
9.475
20
2.323
0
VERTEX
8
1
10
9.456
20
2.331
0
VERTEX
8
1
10
9.414
20
2.301
0
VERTEX
8
1
10
9.391
20
2.291
0
VERTEX
8
1
10
9.366
20
2.302
0
VERTEX
8
1
10
9.331
20
2.319
0
VERTEX
8
1
10
9.311
20
2.304
0
VERTEX
8
1
10
9.291
20
2.292
0
VERTEX
8
1
10
9.229
20
2.319
0
VERTEX
8
1
10
9.204
20
2.322
0
VERTEX
8
1
10
9.193
20
2.304
0
VERTEX
8
1
10
9.176
20
2.293
0
VERTEX
8
1
10
9.139
20
2.332
0
VERTEX
8
1
10
9.124
20
2.351
0
VERTEX
8
1
10
9.120
20
2.359
0
VERTEX
8
1
10
9.138
20
2.405
0
VERTEX
8
1
10
9.135
20
2.425
0
VERTEX
8
1
10
9.118
20
2.429
0
VERTEX
8
1
10
9.086
20
2.388
0
VERTEX
8
1
10
9.077
20
2.382
0
VERTEX
8
1
10
9.071
20
2.396
0
VERTEX
8
1
10
9.082
20
2.478
0
VERTEX
8
1
10
9.076
20
2.501
0
VERTEX
8
1
10
9.061
20
2.502
0
VERTEX
8
1
10
9.043
20
2.470
0
VERTEX
8
1
10
9.035
20
2.445
0
VERTEX
8
1
10
9.022
20
2.452
0
VERTEX
8
1
10
9.009
20
2.501
0
VERTEX
8
1
10
8.999
20
2.562
0
VERTEX
8
1
10
8.996
20
2.577
0
VERTEX
8
1
10
8.995
20
2.596
0
VERTEX
8
1
10
8.985
20
2.617
0
VERTEX
8
1
10
8.969
20
2.617
0
VERTEX
8
1
10
8.958
20
2.593
0
VERTEX
8
1
10
8.969
20
2.497
0
VERTEX
8
1
10
8.966
20
2.483
0
VERTEX
8
1
10
8.955
20
2.492
0
VERTEX
8
1
10
8.875
20
2.590
0
VERTEX
8
1
10
8.862
20
2.607
0
VERTEX
8
1
10
8.845
20
2.627
0
VERTEX
8
1
10
8.822
20
2.640
0
VERTEX
8
1
10
8.807
20
2.632
0
VERTEX
8
1
10
8.809
20
2.608
0
VERTEX
8
1
10
8.833
20
2.578
0
VERTEX
8
1
10
8.915
20
2.479
0
VERTEX
8
1
10
8.944
20
2.437
0
VERTEX
8
1
10
8.951
20
2.419
0
VERTEX
8
1
10
8.945
20
2.420
0
VERTEX
8
1
10
8.892
20
2.458
0
VERTEX
8
1
10
8.880
20
2.468
0
VERTEX
8
1
10
8.842
20
2.494
0
VERTEX
8
1
10
8.817
20
2.501
0
VERTEX
8
1
10
8.805
20
2.492
0
VERTEX
8
1
10
8.814
20
2.468
0
VERTEX
8
1
10
8.835
20
2.452
0
VERTEX
8
1
10
8.916
20
2.391
0
VERTEX
8
1
10
8.949
20
2.361
0
VERTEX
8
1
10
8.957
20
2.348
0
VERTEX
8
1
10
8.945
20
2.349
0
VERTEX
8
1
10
8.877
20
2.384
0
VERTEX
8
1
10
8.850
20
2.386
0
VERTEX
8
1
10
8.846
20
2.362
0
VERTEX
8
1
10
8.900
20
2.328
0
VERTEX
8
1
10
8.923
20
2.313
0
VERTEX
8
1
10
8.918
20
2.305
0
VERTEX
8
1
10
8.897
20
2.308
0
VERTEX
8
1
10
8.817
20
2.347
0
VERTEX
8
1
10
8.777
20
2.356
0
VERTEX
8
1
10
8.757
20
2.344
0
VERTEX
8
1
10
8.734
20
2.324
0
VERTEX
8
1
10
8.719
20
2.306
0
VERTEX
8
1
10
8.709
20
2.299
0
VERTEX
8
1
10
8.641
20
2.327
0
VERTEX
8
1
10
8.619
20
2.322
0
VERTEX
8
1
10
8.615
20
2.310
0
VERTEX
8
1
10
8.632
20
2.293
0
VERTEX
8
1
10
8.704
20
2.262
0
VERTEX
8
1
10
8.743
20
2.246
0
VERTEX
8
1
10
8.750
20
2.235
0
VERTEX
8
1
10
8.737
20
2.233
0
VERTEX
8
1
10
8.652
20
2.252
0
VERTEX
8
1
10
8.623
20
2.249
0
VERTEX
8
1
10
8.618
20
2.240
0
VERTEX
8
1
10
8.657
20
2.196
0
VERTEX
8
1
10
8.655
20
2.183
0
VERTEX
8
1
10
8.637
20
2.186
0
VERTEX
8
1
10
8.608
20
2.212
0
VERTEX
8
1
10
8.579
20
2.232
0
VERTEX
8
1
10
8.530
20
2.242
0
VERTEX
8
1
10
8.501
20
2.258
0
VERTEX
8
1
10
8.475
20
2.274
0
VERTEX
8
1
10
8.452
20
2.269
0
VERTEX
8
1
10
8.418
20
2.253
0
VERTEX
8
1
10
8.383
20
2.235
0
VERTEX
8
1
10
8.364
20
2.228
0
VERTEX
8
1
10
8.360
20
2.235
0
VERTEX
8
1
10
8.385
20
2.287
0
VERTEX
8
1
10
8.383
20
2.306
0
VERTEX
8
1
10
8.368
20
2.309
0
VERTEX
8
1
10
8.311
20
2.268
0
VERTEX
8
1
10
8.288
20
2.263
0
VERTEX
8
1
10
8.281
20
2.270
0
VERTEX
8
1
10
8.295
20
2.325
0
VERTEX
8
1
10
8.287
20
2.338
0
VERTEX
8
1
10
8.273
20
2.338
0
VERTEX
8
1
10
8.237
20
2.310
0
VERTEX
8
1
10
8.209
20
2.284
0
VERTEX
8
1
10
8.199
20
2.284
0
VERTEX
8
1
10
8.210
20
2.320
0
VERTEX
8
1
10
8.204
20
2.336
0
VERTEX
8
1
10
8.180
20
2.331
0
VERTEX
8
1
10
8.148
20
2.281
0
VERTEX
8
1
10
8.129
20
2.252
0
VERTEX
8
1
10
8.114
20
2.246
0
VERTEX
8
1
10
8.112
20
2.261
0
VERTEX
8
1
10
8.137
20
2.339
0
VERTEX
8
1
10
8.146
20
2.362
0
VERTEX
8
1
10
8.152
20
2.387
0
VERTEX
8
1
10
8.135
20
2.394
0
VERTEX
8
1
10
8.120
20
2.400
0
VERTEX
8
1
10
8.123
20
2.424
0
VERTEX
8
1
10
8.170
20
2.486
0
VERTEX
8
1
10
8.181
20
2.509
0
VERTEX
8
1
10
8.172
20
2.516
0
VERTEX
8
1
10
8.149
20
2.506
0
VERTEX
8
1
10
8.117
20
2.474
0
VERTEX
8
1
10
8.089
20
2.418
0
VERTEX
8
1
10
8.074
20
2.341
0
VERTEX
8
1
10
8.073
20
2.298
0
VERTEX
8
1
10
8.066
20
2.282
0
VERTEX
8
1
10
8.054
20
2.282
0
VERTEX
8
1
10
7.980
20
2.352
0
VERTEX
8
1
10
7.960
20
2.354
0
VERTEX
8
1
10
7.953
20
2.338
0
VERTEX
8
1
10
7.977
20
2.309
0
VERTEX
8
1
10
7.998
20
2.283
0
VERTEX
8
1
10
7.990
20
2.270
0
VERTEX
8
1
10
7.915
20
2.296
0
VERTEX
8
1
10
7.893
20
2.286
0
VERTEX
8
1
10
7.886
20
2.279
0
VERTEX
8
1
10
7.859
20
2.264
0
VERTEX
8
1
10
7.831
20
2.271
0
VERTEX
8
1
10
7.823
20
2.326
0
VERTEX
8
1
10
7.805
20
2.334
0
VERTEX
8
1
10
7.791
20
2.323
0
VERTEX
8
1
10
7.760
20
2.266
0
VERTEX
8
1
10
7.729
20
2.233
0
VERTEX
8
1
10
7.712
20
2.233
0
VERTEX
8
1
10
7.693
20
2.278
0
VERTEX
8
1
10
7.680
20
2.294
0
VERTEX
8
1
10
7.668
20
2.293
0
VERTEX
8
1
10
7.629
20
2.238
0
VERTEX
8
1
10
7.611
20
2.233
0
VERTEX
8
1
10
7.590
20
2.259
0
VERTEX
8
1
10
7.569
20
2.297
0
VERTEX
8
1
10
7.573
20
2.306
0
VERTEX
8
1
10
7.597
20
2.309
0
VERTEX
8
1
10
7.642
20
2.313
0
VERTEX
8
1
10
7.673
20
2.319
0
VERTEX
8
1
10
7.700
20
2.337
0
VERTEX
8
1
10
7.719
20
2.397
0
VERTEX
8
1
10
7.739
20
2.422
0
VERTEX
8
1
10
7.783
20
2.434
0
VERTEX
8
1
10
7.925
20
2.441
0
VERTEX
8
1
10
7.994
20
2.453
0
VERTEX
8
1
10
8.020
20
2.476
0
VERTEX
8
1
10
8.015
20
2.499
0
VERTEX
8
1
10
7.985
20
2.518
0
VERTEX
8
1
10
7.840
20
2.553
0
VERTEX
8
1
10
7.626
20
2.612
0
VERTEX
8
1
10
7.619
20
2.613
0
VERTEX
8
1
10
7.571
20
2.626
0
VERTEX
8
1
10
7.538
20
2.639
0
VERTEX
8
1
10
7.536
20
2.647
0
VERTEX
8
1
10
7.557
20
2.653
0
VERTEX
8
1
10
7.637
20
2.647
0
VERTEX
8
1
10
7.675
20
2.640
0
VERTEX
8
1
10
7.732
20
2.632
0
VERTEX
8
1
10
8.015
20
2.606
0
VERTEX
8
1
10
8.098
20
2.600
0
VERTEX
8
1
10
8.189
20
2.600
0
VERTEX
8
1
10
8.266
20
2.594
0
VERTEX
8
1
10
8.325
20
2.569
0
VERTEX
8
1
10
8.388
20
2.545
0
VERTEX
8
1
10
8.432
20
2.545
0
VERTEX
8
1
10
8.458
20
2.566
0
VERTEX
8
1
10
8.464
20
2.585
0
VERTEX
8
1
10
8.447
20
2.639
0
VERTEX
8
1
10
8.452
20
2.675
0
VERTEX
8
1
10
8.475
20
2.722
0
VERTEX
8
1
10
8.489
20
2.749
0
VERTEX
8
1
10
8.499
20
2.793
0
VERTEX
8
1
10
8.490
20
2.845
0
VERTEX
8
1
10
8.482
20
2.892
0
VERTEX
8
1
10
8.495
20
2.902
0
VERTEX
8
1
10
8.523
20
2.885
0
VERTEX
8
1
10
8.608
20
2.820
0
VERTEX
8
1
10
8.657
20
2.799
0
VERTEX
8
1
10
8.717
20
2.791
0
VERTEX
8
1
10
8.873
20
2.783
0
VERTEX
8
1
10
8.982
20
2.771
0
VERTEX
8
1
10
9.079
20
2.748
0
VERTEX
8
1
10
9.179
20
2.724
0
VERTEX
8
1
10
9.318
20
2.716
0
VERTEX
8
1
10
9.379
20
2.707
0
VERTEX
8
1
10
9.454
20
2.689
0
VERTEX
8
1
10
9.598
20
2.646
0
VERTEX
8
1
10
9.645
20
2.648
0
VERTEX
8
1
10
9.662
20
2.663
0
VERTEX
8
1
10
9.656
20
2.685
0
VERTEX
8
1
10
9.619
20
2.714
0
VERTEX
8
1
10
9.470
20
2.787
0
VERTEX
8
1
10
9.421
20
2.810
0
VERTEX
8
1
10
9.379
20
2.840
0
VERTEX
8
1
10
9.370
20
2.858
0
VERTEX
8
1
10
9.384
20
2.866
0
VERTEX
8
1
10
9.443
20
2.879
0
VERTEX
8
1
10
9.563
20
2.924
0
VERTEX
8
1
10
9.591
20
2.934
0
VERTEX
8
1
10
9.690
20
2.961
0
VERTEX
8
1
10
9.794
20
2.982
0
VERTEX
8
1
10
9.864
20
3.004
  0
SEQEND
0
POLYLINE
8
1
6
CONTINUOUS
66
1
70
1
0
VERTEX
8
1
10
5.926
20
3.104
0
VERTEX
8
1
10
5.960
20
3.066
0
VERTEX
8
1
10
5.996
20
3.010
0
VERTEX
8
1
10
6.033
20
2.936
0
VERTEX
8
1
10
6.039
20
2.890
0
VERTEX
8
1
10
6.022
20
2.857
0
VERTEX
8
1
10
5.983
20
2.833
0
VERTEX
8
1
10
5.959
20
2.823
0
VERTEX
8
1
10
5.921
20
2.804
0
VERTEX
8
1
10
5.907
20
2.783
0
VERTEX
8
1
10
5.915
20
2.757
0
VERTEX
8
1
10
5.945
20
2.720
0
VERTEX
8
1
10
5.991
20
2.662
0
VERTEX
8
1
10
6.011
20
2.658
0
VERTEX
8
1
10
6.044
20
2.694
0
VERTEX
8
1
10
6.074
20
2.715
0
VERTEX
8
1
10
6.100
20
2.709
0
VERTEX
8
1
10
6.116
20
2.674
0
VERTEX
8
1
10
6.090
20
2.593
0
VERTEX
8
1
10
6.085
20
2.568
0
VERTEX
8
1
10
6.098
20
2.562
0
VERTEX
8
1
10
6.125
20
2.566
0
VERTEX
8
1
10
6.164
20
2.568
0
VERTEX
8
1
10
6.179
20
2.552
0
VERTEX
8
1
10
6.181
20
2.520
0
VERTEX
8
1
10
6.172
20
2.470
0
VERTEX
8
1
10
6.141
20
2.399
0
VERTEX
8
1
10
6.078
20
2.321
0
VERTEX
8
1
10
5.974
20
2.225
0
VERTEX
8
1
10
5.925
20
2.178
0
VERTEX
8
1
10
5.904
20
2.146
0
VERTEX
8
1
10
5.907
20
2.123
0
VERTEX
8
1
10
5.952
20
2.087
0
VERTEX
8
1
10
6.004
20
2.039
0
VERTEX
8
1
10
6.014
20
2.010
0
VERTEX
8
1
10
6.001
20
1.988
0
VERTEX
8
1
10
5.965
20
1.970
0
VERTEX
8
1
10
5.887
20
1.936
0
VERTEX
8
1
10
5.858
20
1.924
0
VERTEX
8
1
10
5.817
20
1.922
0
VERTEX
8
1
10
5.780
20
1.942
0
VERTEX
8
1
10
5.714
20
2.028
0
VERTEX
8
1
10
5.686
20
2.059
0
VERTEX
8
1
10
5.669
20
2.063
0
VERTEX
8
1
10
5.642
20
2.038
0
VERTEX
8
1
10
5.609
20
2.022
0
VERTEX
8
1
10
5.535
20
2.037
0
VERTEX
8
1
10
5.449
20
2.109
0
VERTEX
8
1
10
5.392
20
2.147
0
VERTEX
8
1
10
5.369
20
2.158
0
VERTEX
8
1
10
5.323
20
2.201
0
VERTEX
8
1
10
5.292
20
2.204
0
VERTEX
8
1
10
5.239
20
2.212
0
VERTEX
8
1
10
5.218
20
2.240
0
VERTEX
8
1
10
5.208
20
2.326
0
VERTEX
8
1
10
5.198
20
2.360
0
VERTEX
8
1
10
5.200
20
2.380
0
VERTEX
8
1
10
5.218
20
2.409
0
VERTEX
8
1
10
5.284
20
2.525
0
VERTEX
8
1
10
5.334
20
2.595
0
VERTEX
8
1
10
5.388
20
2.632
0
VERTEX
8
1
10
5.437
20
2.645
0
VERTEX
8
1
10
5.490
20
2.641
0
VERTEX
8
1
10
5.534
20
2.629
0
VERTEX
8
1
10
5.553
20
2.638
0
VERTEX
8
1
10
5.560
20
2.656
0
VERTEX
8
1
10
5.564
20
2.701
0
VERTEX
8
1
10
5.575
20
2.750
0
VERTEX
8
1
10
5.598
20
2.806
0
VERTEX
8
1
10
5.635
20
2.870
0
VERTEX
8
1
10
5.692
20
2.949
0
VERTEX
8
1
10
5.712
20
2.981
0
VERTEX
8
1
10
5.753
20
3.039
0
VERTEX
8
1
10
5.765
20
3.047
0
VERTEX
8
1
10
5.880
20
3.102
0
VERTEX
8
1
10
5.901
20
3.110
  0
SEQEND
0
POLYLINE
8
1
6
CONTINUOUS
66
1
70
1
0
VERTEX
8
1
10
5.940
20
3.519
0
VERTEX
8
1
10
5.961
20
3.470
0
VERTEX
8
1
10
5.973
20
3.439
0
VERTEX
8
1
10
5.985
20
3.429
0
VERTEX
8
1
10
6.015
20
3.435
0
VERTEX
8
1
10
6.039
20
3.429
0
VERTEX
8
1
10
6.063
20
3.398
0
VERTEX
8
1
10
6.094
20
3.300
0
VERTEX
8
1
10
6.105
20
3.261
0
VERTEX
8
1
10
6.115
20
3.240
0
VERTEX
8
1
10
6.176
20
3.135
0
VERTEX
8
1
10
6.194
20
3.085
0
VERTEX
8
1
10
6.190
20
3.056
0
VERTEX
8
1
10
6.168
20
3.042
0
VERTEX
8
1
10
6.117
20
3.034
0
VERTEX
8
1
10
6.091
20
3.043
0
VERTEX
8
1
10
6.068
20
3.076
0
VERTEX
8
1
10
5.933
20
3.296
0
VERTEX
8
1
10
5.902
20
3.376
0
VERTEX
8
1
10
5.897
20
3.396
0
VERTEX
8
1
10
5.886
20
3.474
0
VERTEX
8
1
10
5.894
20
3.515
0
VERTEX
8
1
10
5.914
20
3.531
  0
SEQEND
0
POLYLINE
8
1
6
CONTINUOUS
66
1
70
1
0
VERTEX
8
1
10
5.730
20
3.639
0
VERTEX
8
1
10
5.749
20
3.620
0
VERTEX
8
1
10
5.759
20
3.565
0
VERTEX
8
1
10
5.758
20
3.527
0
VERTEX
8
1
10
5.753
20
3.459
0
VERTEX
8
1
10
5.756
20
3.395
0
VERTEX
8
1
10
5.755
20
3.330
0
VERTEX
8
1
10
5.747
20
3.272
0
VERTEX
8
1
10
5.732
20
3.199
0
VERTEX
8
1
10
5.718
20
3.144
0
VERTEX
8
1
10
5.708
20
3.114
0
VERTEX
8
1
10
5.688
20
3.097
0
VERTEX
8
1
10
5.658
20
3.081
0
VERTEX
8
1
10
5.635
20
3.052
0
VERTEX
8
1
10
5.586
20
2.925
0
VERTEX
8
1
10
5.573
20
2.886
0
VERTEX
8
1
10
5.533
20
2.803
0
VERTEX
8
1
10
5.499
20
2.759
0
VERTEX
8
1
10
5.445
20
2.721
0
VERTEX
8
1
10
5.374
20
2.685
0
VERTEX
8
1
10
5.313
20
2.644
0
VERTEX
8
1
10
5.259
20
2.591
0
VERTEX
8
1
10
5.225
20
2.544
0
VERTEX
8
1
10
5.204
20
2.519
0
VERTEX
8
1
10
5.188
20
2.519
0
VERTEX
8
1
10
5.181
20
2.532
0
VERTEX
8
1
10
5.188
20
2.575
0
VERTEX
8
1
10
5.201
20
2.609
0
VERTEX
8
1
10
5.211
20
2.639
0
VERTEX
8
1
10
5.260
20
2.736
0
VERTEX
8
1
10
5.326
20
2.814
0
VERTEX
8
1
10
5.361
20
2.853
0
VERTEX
8
1
10
5.371
20
2.874
0
VERTEX
8
1
10
5.361
20
2.882
0
VERTEX
8
1
10
5.334
20
2.874
0
VERTEX
8
1
10
5.287
20
2.846
0
VERTEX
8
1
10
5.210
20
2.769
0
VERTEX
8
1
10
5.163
20
2.693
0
VERTEX
8
1
10
5.134
20
2.633
0
VERTEX
8
1
10
5.115
20
2.603
0
VERTEX
8
1
10
5.097
20
2.599
0
VERTEX
8
1
10
5.078
20
2.664
0
VERTEX
8
1
10
5.067
20
2.676
0
VERTEX
8
1
10
5.049
20
2.665
0
VERTEX
8
1
10
5.019
20
2.623
0
VERTEX
8
1
10
4.979
20
2.519
0
VERTEX
8
1
10
4.946
20
2.421
0
VERTEX
8
1
10
4.925
20
2.377
0
VERTEX
8
1
10
4.904
20
2.349
0
VERTEX
8
1
10
4.883
20
2.342
0
VERTEX
8
1
10
4.859
20
2.359
0
VERTEX
8
1
10
4.824
20
2.406
0
VERTEX
8
1
10
4.792
20
2.434
0
VERTEX
8
1
10
4.730
20
2.450
0
VERTEX
8
1
10
4.709
20
2.467
0
VERTEX
8
1
10
4.739
20
2.535
0
VERTEX
8
1
10
4.730
20
2.558
0
VERTEX
8
1
10
4.693
20
2.576
0
VERTEX
8
1
10
4.615
20
2.576
0
VERTEX
8
1
10
4.554
20
2.571
0
VERTEX
8
1
10
4.516
20
2.574
0
VERTEX
8
1
10
4.503
20
2.582
0
VERTEX
8
1
10
4.512
20
2.596
0
VERTEX
8
1
10
4.556
20
2.620
0
VERTEX
8
1
10
4.653
20
2.667
0
VERTEX
8
1
10
4.748
20
2.727
0
VERTEX
8
1
10
4.798
20
2.756
0
VERTEX
8
1
10
4.840
20
2.790
0
VERTEX
8
1
10
4.866
20
2.832
0
VERTEX
8
1
10
4.906
20
2.891
0
VERTEX
8
1
10
4.981
20
2.949
0
VERTEX
8
1
10
5.018
20
2.989
0
VERTEX
8
1
10
5.050
20
3.029
0
VERTEX
8
1
10
5.187
20
3.155
0
VERTEX
8
1
10
5.308
20
3.214
0
VERTEX
8
1
10
5.366
20
3.251
0
VERTEX
8
1
10
5.389
20
3.280
0
VERTEX
8
1
10
5.426
20
3.369
0
VERTEX
8
1
10
5.450
20
3.424
0
VERTEX
8
1
10
5.473
20
3.445
0
VERTEX
8
1
10
5.504
20
3.443
0
VERTEX
8
1
10
5.521
20
3.439
0
VERTEX
8
1
10
5.547
20
3.447
0
VERTEX
8
1
10
5.580
20
3.505
0
VERTEX
8
1
10
5.602
20
3.535
0
VERTEX
8
1
10
5.682
20
3.622
0
VERTEX
8
1
10
5.712
20
3.640
  0
SEQEND
0
POLYLINE
8
1
6
CONTINUOUS
66
1
70
1
0
VERTEX
8
1
10
6.156
20
3.889
0
VERTEX
8
1
10
6.196
20
3.869
0
VERTEX
8
1
10
6.297
20
3.796
0
VERTEX
8
1
10
6.349
20
3.754
0
VERTEX
8
1
10
6.372
20
3.734
0
VERTEX
8
1
10
6.417
20
3.693
0
VERTEX
8
1
10
6.434
20
3.685
0
VERTEX
8
1
10
6.436
20
3.699
0
VERTEX
8
1
10
6.432
20
3.712
0
VERTEX
8
1
10
6.407
20
3.792
0
VERTEX
8
1
10
6.410
20
3.823
0
VERTEX
8
1
10
6.428
20
3.833
0
VERTEX
8
1
10
6.446
20
3.826
0
VERTEX
8
1
10
6.478
20
3.793
0
VERTEX
8
1
10
6.534
20
3.727
0
VERTEX
8
1
10
6.602
20
3.671
0
VERTEX
8
1
10
6.670
20
3.620
0
VERTEX
8
1
10
6.822
20
3.450
0
VERTEX
8
1
10
6.888
20
3.377
0
VERTEX
8
1
10
7.154
20
3.054
0
VERTEX
8
1
10
7.176
20
3.019
0
VERTEX
8
1
10
7.182
20
2.990
0
VERTEX
8
1
10
7.171
20
2.978
0
VERTEX
8
1
10
7.146
20
2.985
0
VERTEX
8
1
10
7.099
20
3.023
0
VERTEX
8
1
10
7.045
20
3.077
0
VERTEX
8
1
10
6.830
20
3.314
0
VERTEX
8
1
10
6.766
20
3.384
0
VERTEX
8
1
10
6.724
20
3.426
0
VERTEX
8
1
10
6.697
20
3.454
0
VERTEX
8
1
10
6.629
20
3.522
0
VERTEX
8
1
10
6.579
20
3.567
0
VERTEX
8
1
10
6.558
20
3.580
0
VERTEX
8
1
10
6.553
20
3.575
0
VERTEX
8
1
10
6.579
20
3.520
0
VERTEX
8
1
10
6.641
20
3.406
0
VERTEX
8
1
10
6.665
20
3.331
0
VERTEX
8
1
10
6.661
20
3.288
0
VERTEX
8
1
10
6.640
20
3.273
0
VERTEX
8
1
10
6.597
20
3.276
0
VERTEX
8
1
10
6.574
20
3.278
0
VERTEX
8
1
10
6.565
20
3.266
0
VERTEX
8
1
10
6.572
20
3.230
0
VERTEX
8
1
10
6.581
20
3.168
0
VERTEX
8
1
10
6.568
20
3.120
0
VERTEX
8
1
10
6.542
20
3.084
0
VERTEX
8
1
10
6.515
20
3.078
0
VERTEX
8
1
10
6.494
20
3.103
0
VERTEX
8
1
10
6.503
20
3.167
0
VERTEX
8
1
10
6.504
20
3.207
0
VERTEX
8
1
10
6.477
20
3.254
0
VERTEX
8
1
10
6.353
20
3.399
0
VERTEX
8
1
10
6.314
20
3.443
0
VERTEX
8
1
10
6.288
20
3.471
0
VERTEX
8
1
10
6.264
20
3.511
0
VERTEX
8
1
10
6.270
20
3.535
0
VERTEX
8
1
10
6.287
20
3.540
0
VERTEX
8
1
10
6.321
20
3.527
0
VERTEX
8
1
10
6.448
20
3.438
0
VERTEX
8
1
10
6.479
20
3.415
0
VERTEX
8
1
10
6.535
20
3.394
0
VERTEX
8
1
10
6.550
20
3.399
0
VERTEX
8
1
10
6.546
20
3.419
0
VERTEX
8
1
10
6.526
20
3.450
0
VERTEX
8
1
10
6.477
20
3.508
0
VERTEX
8
1
10
6.361
20
3.626
0
VERTEX
8
1
10
6.265
20
3.719
0
VERTEX
8
1
10
6.217
20
3.769
0
VERTEX
8
1
10
6.144
20
3.848
0
VERTEX
8
1
10
6.129
20
3.876
0
VERTEX
8
1
10
6.137
20
3.890
  0
SEQEND
0
POLYLINE
8
1
6
CONTINUOUS
66
1
70
1
0
VERTEX
8
1
10
8.813
20
3.935
0
VERTEX
8
1
10
8.869
20
3.909
0
VERTEX
8
1
10
8.957
20
3.851
0
VERTEX
8
1
10
9.113
20
3.724
0
VERTEX
8
1
10
9.173
20
3.669
0
VERTEX
8
1
10
9.206
20
3.636
0
VERTEX
8
1
10
9.223
20
3.619
0
VERTEX
8
1
10
9.259
20
3.595
0
VERTEX
8
1
10
9.270
20
3.598
0
VERTEX
8
1
10
9.268
20
3.619
0
VERTEX
8
1
10
9.223
20
3.697
0
VERTEX
8
1
10
9.180
20
3.767
0
VERTEX
8
1
10
9.171
20
3.798
0
VERTEX
8
1
10
9.184
20
3.816
0
VERTEX
8
1
10
9.235
20
3.799
0
VERTEX
8
1
10
9.318
20
3.709
0
VERTEX
8
1
10
9.349
20
3.673
0
VERTEX
8
1
10
9.362
20
3.663
0
VERTEX
8
1
10
9.364
20
3.675
0
VERTEX
8
1
10
9.365
20
3.717
0
VERTEX
8
1
10
9.379
20
3.735
0
VERTEX
8
1
10
9.407
20
3.735
0
VERTEX
8
1
10
9.455
20
3.707
0
VERTEX
8
1
10
9.462
20
3.701
0
VERTEX
8
1
10
9.525
20
3.637
0
VERTEX
8
1
10
9.532
20
3.616
0
VERTEX
8
1
10
9.476
20
3.595
0
VERTEX
8
1
10
9.470
20
3.581
0
VERTEX
8
1
10
9.481
20
3.554
0
VERTEX
8
1
10
9.483
20
3.527
0
VERTEX
8
1
10
9.460
20
3.520
0
VERTEX
8
1
10
9.418
20
3.534
0
VERTEX
8
1
10
9.379
20
3.557
0
VERTEX
8
1
10
9.355
20
3.561
0
VERTEX
8
1
10
9.325
20
3.540
0
VERTEX
8
1
10
9.290
20
3.521
0
VERTEX
8
1
10
9.284
20
3.502
0
VERTEX
8
1
10
9.314
20
3.485
0
VERTEX
8
1
10
9.431
20
3.435
0
VERTEX
8
1
10
9.484
20
3.405
0
VERTEX
8
1
10
9.502
20
3.382
0
VERTEX
8
1
10
9.502
20
3.360
0
VERTEX
8
1
10
9.484
20
3.343
0
VERTEX
8
1
10
9.439
20
3.341
0
VERTEX
8
1
10
9.395
20
3.349
0
VERTEX
8
1
10
9.362
20
3.347
0
VERTEX
8
1
10
9.356
20
3.332
0
VERTEX
8
1
10
9.380
20
3.274
0
VERTEX
8
1
10
9.391
20
3.256
0
VERTEX
8
1
10
9.422
20
3.239
0
VERTEX
8
1
10
9.482
20
3.235
0
VERTEX
8
1
10
9.579
20
3.233
0
VERTEX
8
1
10
9.610
20
3.226
0
VERTEX
8
1
10
9.699
20
3.195
0
VERTEX
8
1
10
9.744
20
3.169
0
VERTEX
8
1
10
9.756
20
3.146
0
VERTEX
8
1
10
9.743
20
3.128
0
VERTEX
8
1
10
9.704
20
3.128
0
VERTEX
8
1
10
9.666
20
3.137
0
VERTEX
8
1
10
9.518
20
3.152
0
VERTEX
8
1
10
9.447
20
3.141
0
VERTEX
8
1
10
9.381
20
3.115
0
VERTEX
8
1
10
9.324
20
3.084
0
VERTEX
8
1
10
9.286
20
3.074
0
VERTEX
8
1
10
9.264
20
3.086
0
VERTEX
8
1
10
9.221
20
3.120
0
VERTEX
8
1
10
9.146
20
3.183
0
VERTEX
8
1
10
9.031
20
3.263
0
VERTEX
8
1
10
8.949
20
3.297
0
VERTEX
8
1
10
8.915
20
3.314
0
VERTEX
8
1
10
8.901
20
3.339
0
VERTEX
8
1
10
8.911
20
3.363
0
VERTEX
8
1
10
8.940
20
3.375
0
VERTEX
8
1
10
9.002
20
3.363
0
VERTEX
8
1
10
9.157
20
3.295
0
VERTEX
8
1
10
9.200
20
3.272
0
VERTEX
8
1
10
9.276
20
3.240
0
VERTEX
8
1
10
9.292
20
3.244
0
VERTEX
8
1
10
9.290
20
3.269
0
VERTEX
8
1
10
9.251
20
3.316
0
VERTEX
8
1
10
9.223
20
3.341
0
VERTEX
8
1
10
9.192
20
3.375
0
VERTEX
8
1
10
9.177
20
3.403
0
VERTEX
8
1
10
9.191
20
3.461
0
VERTEX
8
1
10
9.179
20
3.483
0
VERTEX
8
1
10
9.149
20
3.510
0
VERTEX
8
1
10
9.111
20
3.542
0
VERTEX
8
1
10
9.096
20
3.565
0
VERTEX
8
1
10
9.107
20
3.595
0
VERTEX
8
1
10
9.106
20
3.618
0
VERTEX
8
1
10
9.085
20
3.645
0
VERTEX
8
1
10
9.012
20
3.713
0
VERTEX
8
1
10
8.875
20
3.811
0
VERTEX
8
1
10
8.782
20
3.873
0
VERTEX
8
1
10
8.755
20
3.904
0
VERTEX
8
1
10
8.755
20
3.927
0
VERTEX
8
1
10
8.776
20
3.940
  0
SEQEND
0
POLYLINE
8
1
6
CONTINUOUS
66
1
70
1
0
VERTEX
8
1
10
5.610
20
3.979
0
VERTEX
8
1
10
5.623
20
3.958
0
VERTEX
8
1
10
5.616
20
3.906
0
VERTEX
8
1
10
5.589
20
3.801
0
VERTEX
8
1
10
5.578
20
3.776
0
VERTEX
8
1
10
5.550
20
3.748
0
VERTEX
8
1
10
5.521
20
3.748
0
VERTEX
8
1
10
5.467
20
3.770
0
VERTEX
8
1
10
5.447
20
3.794
0
VERTEX
8
1
10
5.447
20
3.828
0
VERTEX
8
1
10
5.483
20
3.895
0
VERTEX
8
1
10
5.542
20
3.957
0
VERTEX
8
1
10
5.587
20
3.980
  0
SEQEND
0
POLYLINE
8
1
6
CONTINUOUS
66
1
70
1
0
VERTEX
8
1
10
5.730
20
4.480
0
VERTEX
8
1
10
5.716
20
4.448
0
VERTEX
8
1
10
5.702
20
4.424
0
VERTEX
8
1
10
5.707
20
4.388
0
VERTEX
8
1
10
5.717
20
4.335
0
VERTEX
8
1
10
5.703
20
4.312
0
VERTEX
8
1
10
5.658
20
4.319
0
VERTEX
8
1
10
5.635
20
4.313
0
VERTEX
8
1
10
5.626
20
4.302
0
VERTEX
8
1
10
5.629
20
4.259
0
VERTEX
8
1
10
5.622
20
4.232
0
VERTEX
8
1
10
5.604
20
4.215
0
VERTEX
8
1
10
5.515
20
4.159
0
VERTEX
8
1
10
5.447
20
4.112
0
VERTEX
8
1
10
5.382
20
4.000
0
VERTEX
8
1
10
5.342
20
3.949
0
VERTEX
8
1
10
5.305
20
3.922
0
VERTEX
8
1
10
5.195
20
3.832
0
VERTEX
8
1
10
5.166
20
3.795
0
VERTEX
8
1
10
5.162
20
3.771
0
VERTEX
8
1
10
5.180
20
3.756
0
VERTEX
8
1
10
5.220
20
3.753
0
VERTEX
8
1
10
5.293
20
3.777
0
VERTEX
8
1
10
5.336
20
3.773
0
VERTEX
8
1
10
5.352
20
3.752
0
VERTEX
8
1
10
5.347
20
3.719
0
VERTEX
8
1
10
5.309
20
3.670
0
VERTEX
8
1
10
5.197
20
3.597
0
VERTEX
8
1
10
5.167
20
3.567
0
VERTEX
8
1
10
5.163
20
3.539
0
VERTEX
8
1
10
5.202
20
3.506
0
VERTEX
8
1
10
5.244
20
3.515
0
VERTEX
8
1
10
5.316
20
3.557
0
VERTEX
8
1
10
5.381
20
3.610
0
VERTEX
8
1
10
5.406
20
3.634
0
VERTEX
8
1
10
5.448
20
3.663
0
VERTEX
8
1
10
5.473
20
3.668
0
VERTEX
8
1
10
5.478
20
3.656
0
VERTEX
8
1
10
5.468
20
3.628
0
VERTEX
8
1
10
5.445
20
3.586
0
VERTEX
8
1
10
5.422
20
3.548
0
VERTEX
8
1
10
5.402
20
3.524
0
VERTEX
8
1
10
5.370
20
3.514
0
VERTEX
8
1
10
5.332
20
3.506
0
VERTEX
8
1
10
5.309
20
3.495
0
VERTEX
8
1
10
5.215
20
3.434
0
VERTEX
8
1
10
5.191
20
3.408
0
VERTEX
8
1
10
5.196
20
3.375
0
VERTEX
8
1
10
5.260
20
3.352
0
VERTEX
8
1
10
5.283
20
3.336
0
VERTEX
8
1
10
5.281
20
3.312
0
VERTEX
8
1
10
5.260
20
3.282
0
VERTEX
8
1
10
5.196
20
3.237
0
VERTEX
8
1
10
5.146
20
3.207
0
VERTEX
8
1
10
5.083
20
3.155
0
VERTEX
8
1
10
5.046
20
3.117
0
VERTEX
8
1
10
5.017
20
3.091
0
VERTEX
8
1
10
4.871
20
3.000
0
VERTEX
8
1
10
4.814
20
2.949
0
VERTEX
8
1
10
4.770
20
2.902
0
VERTEX
8
1
10
4.649
20
2.800
0
VERTEX
8
1
10
4.474
20
2.689
0
VERTEX
8
1
10
4.409
20
2.654
0
VERTEX
8
1
10
4.369
20
2.635
0
VERTEX
8
1
10
4.342
20
2.627
0
VERTEX
8
1
10
4.332
20
2.631
0
VERTEX
8
1
10
4.362
20
2.679
0
VERTEX
8
1
10
4.361
20
2.716
0
VERTEX
8
1
10
4.264
20
2.738
0
VERTEX
8
1
10
4.248
20
2.754
0
VERTEX
8
1
10
4.254
20
2.779
0
VERTEX
8
1
10
4.297
20
2.829
0
VERTEX
8
1
10
4.389
20
2.914
0
VERTEX
8
1
10
4.458
20
2.984
0
VERTEX
8
1
10
4.474
20
2.999
0
VERTEX
8
1
10
4.582
20
3.059
0
VERTEX
8
1
10
4.630
20
3.092
0
VERTEX
8
1
10
4.753
20
3.184
0
VERTEX
8
1
10
4.806
20
3.226
0
VERTEX
8
1
10
4.832
20
3.247
0
VERTEX
8
1
10
4.845
20
3.262
0
VERTEX
8
1
10
4.854
20
3.290
0
VERTEX
8
1
10
4.844
20
3.300
0
VERTEX
8
1
10
4.816
20
3.294
0
VERTEX
8
1
10
4.670
20
3.201
0
VERTEX
8
1
10
4.603
20
3.160
0
VERTEX
8
1
10
4.563
20
3.148
0
VERTEX
8
1
10
4.536
20
3.157
0
VERTEX
8
1
10
4.519
20
3.187
0
VERTEX
8
1
10
4.520
20
3.224
0
VERTEX
8
1
10
4.547
20
3.246
0
VERTEX
8
1
10
4.591
20
3.273
0
VERTEX
8
1
10
4.638
20
3.315
0
VERTEX
8
1
10
4.653
20
3.334
0
VERTEX
8
1
10
4.666
20
3.359
0
VERTEX
8
1
10
4.661
20
3.375
0
VERTEX
8
1
10
4.635
20
3.377
0
VERTEX
8
1
10
4.612
20
3.365
0
VERTEX
8
1
10
4.513
20
3.292
0
VERTEX
8
1
10
4.476
20
3.263
0
VERTEX
8
1
10
4.465
20
3.241
0
VERTEX
8
1
10
4.462
20
3.158
0
VERTEX
8
1
10
4.449
20
3.112
0
VERTEX
8
1
10
4.427
20
3.085
0
VERTEX
8
1
10
4.374
20
3.035
0
VERTEX
8
1
10
4.225
20
2.920
0
VERTEX
8
1
10
4.141
20
2.860
0
VERTEX
8
1
10
4.093
20
2.828
0
VERTEX
8
1
10
4.036
20
2.791
0
VERTEX
8
1
10
3.989
20
2.761
0
VERTEX
8
1
10
3.958
20
2.744
0
VERTEX
8
1
10
3.941
20
2.741
0
VERTEX
8
1
10
3.936
20
2.758
0
VERTEX
8
1
10
3.939
20
2.802
0
VERTEX
8
1
10
3.933
20
2.827
0
VERTEX
8
1
10
3.872
20
2.867
0
VERTEX
8
1
10
3.863
20
2.891
0
VERTEX
8
1
10
3.871
20
2.924
0
VERTEX
8
1
10
3.894
20
2.970
0
VERTEX
8
1
10
3.910
20
2.997
0
VERTEX
8
1
10
3.949
20
3.053
0
VERTEX
8
1
10
3.998
20
3.097
0
VERTEX
8
1
10
4.056
20
3.128
0
VERTEX
8
1
10
4.098
20
3.151
0
VERTEX
8
1
10
4.148
20
3.190
0
VERTEX
8
1
10
4.185
20
3.208
0
VERTEX
8
1
10
4.283
20
3.254
0
VERTEX
8
1
10
4.518
20
3.400
0
VERTEX
8
1
10
4.610
20
3.458
0
VERTEX
8
1
10
4.792
20
3.558
0
VERTEX
8
1
10
4.873
20
3.600
0
VERTEX
8
1
10
4.942
20
3.639
0
VERTEX
8
1
10
4.959
20
3.665
0
VERTEX
8
1
10
4.951
20
3.689
0
VERTEX
8
1
10
4.944
20
3.698
0
VERTEX
8
1
10
4.941
20
3.718
0
VERTEX
8
1
10
4.965
20
3.745
0
VERTEX
8
1
10
5.067
20
3.865
0
VERTEX
8
1
10
5.159
20
3.958
0
VERTEX
8
1
10
5.194
20
3.993
0
VERTEX
8
1
10
5.206
20
4.016
0
VERTEX
8
1
10
5.205
20
4.043
0
VERTEX
8
1
10
5.188
20
4.052
0
VERTEX
8
1
10
5.161
20
4.041
0
VERTEX
8
1
10
5.144
20
4.028
0
VERTEX
8
1
10
5.058
20
3.944
0
VERTEX
8
1
10
5.013
20
3.896
0
VERTEX
8
1
10
4.940
20
3.825
0
VERTEX
8
1
10
4.811
20
3.728
0
VERTEX
8
1
10
4.736
20
3.675
0
VERTEX
8
1
10
4.566
20
3.543
0
VERTEX
8
1
10
4.485
20
3.485
0
VERTEX
8
1
10
4.238
20
3.303
0
VERTEX
8
1
10
4.111
20
3.227
0
VERTEX
8
1
10
4.010
20
3.187
0
VERTEX
8
1
10
3.961
20
3.172
0
VERTEX
8
1
10
3.935
20
3.149
0
VERTEX
8
1
10
3.915
20
3.112
0
VERTEX
8
1
10
3.904
20
3.094
0
VERTEX
8
1
10
3.854
20
3.043
0
VERTEX
8
1
10
3.806
20
3.017
0
VERTEX
8
1
10
3.769
20
3.019
0
VERTEX
8
1
10
3.739
20
3.092
0
VERTEX
8
1
10
3.723
20
3.110
0
VERTEX
8
1
10
3.697
20
3.107
0
VERTEX
8
1
10
3.666
20
3.099
0
VERTEX
8
1
10
3.659
20
3.107
0
VERTEX
8
1
10
3.673
20
3.128
0
VERTEX
8
1
10
3.732
20
3.183
0
VERTEX
8
1
10
3.806
20
3.221
0
VERTEX
8
1
10
3.865
20
3.246
0
VERTEX
8
1
10
3.908
20
3.260
0
VERTEX
8
1
10
3.943
20
3.256
0
VERTEX
8
1
10
3.964
20
3.268
0
VERTEX
8
1
10
3.998
20
3.295
0
VERTEX
8
1
10
4.215
20
3.443
0
VERTEX
8
1
10
4.281
20
3.497
0
VERTEX
8
1
10
4.360
20
3.554
0
VERTEX
8
1
10
4.427
20
3.582
0
VERTEX
8
1
10
4.474
20
3.600
0
VERTEX
8
1
10
4.525
20
3.631
0
VERTEX
8
1
10
4.603
20
3.719
0
VERTEX
8
1
10
4.652
20
3.764
0
VERTEX
8
1
10
4.860
20
3.911
0
VERTEX
8
1
10
4.954
20
3.984
0
VERTEX
8
1
10
5.039
20
4.033
0
VERTEX
8
1
10
5.099
20
4.061
0
VERTEX
8
1
10
5.171
20
4.105
0
VERTEX
8
1
10
5.248
20
4.174
0
VERTEX
8
1
10
5.332
20
4.264
0
VERTEX
8
1
10
5.404
20
4.328
0
VERTEX
8
1
10
5.440
20
4.355
0
VERTEX
8
1
10
5.522
20
4.400
0
VERTEX
8
1
10
5.600
20
4.436
0
VERTEX
8
1
10
5.643
20
4.460
0
VERTEX
8
1
10
5.709
20
4.488
  0
SEQEND
0
POLYLINE
8
1
6
CONTINUOUS
66
1
70
1
0
VERTEX
8
1
10
8.415
20
4.707
0
VERTEX
8
1
10
8.442
20
4.689
0
VERTEX
8
1
10
8.455
20
4.653
0
VERTEX
8
1
10
8.447
20
4.617
0
VERTEX
8
1
10
8.418
20
4.588
0
VERTEX
8
1
10
8.369
20
4.543
0
VERTEX
8
1
10
8.340
20
4.478
0
VERTEX
8
1
10
8.314
20
4.416
0
VERTEX
8
1
10
8.282
20
4.378
0
VERTEX
8
1
10
8.231
20
4.354
0
VERTEX
8
1
10
8.126
20
4.343
0
VERTEX
8
1
10
8.099
20
4.340
0
VERTEX
8
1
10
8.068
20
4.329
0
VERTEX
8
1
10
8.047
20
4.301
0
VERTEX
8
1
10
8.025
20
4.258
0
VERTEX
8
1
10
8.002
20
4.234
0
VERTEX
8
1
10
7.932
20
4.180
0
VERTEX
8
1
10
7.856
20
4.118
0
VERTEX
8
1
10
7.831
20
4.083
0
VERTEX
8
1
10
7.832
20
4.055
0
VERTEX
8
1
10
7.842
20
4.045
0
VERTEX
8
1
10
7.868
20
4.045
0
VERTEX
8
1
10
7.917
20
4.081
0
VERTEX
8
1
10
7.940
20
4.103
0
VERTEX
8
1
10
7.971
20
4.126
0
VERTEX
8
1
10
8.032
20
4.153
0
VERTEX
8
1
10
8.112
20
4.178
0
VERTEX
8
1
10
8.147
20
4.208
0
VERTEX
8
1
10
8.155
20
4.224
0
VERTEX
8
1
10
8.148
20
4.280
0
VERTEX
8
1
10
8.158
20
4.299
0
VERTEX
8
1
10
8.188
20
4.309
0
VERTEX
8
1
10
8.265
20
4.327
0
VERTEX
8
1
10
8.318
20
4.349
0
VERTEX
8
1
10
8.355
20
4.381
0
VERTEX
8
1
10
8.389
20
4.444
0
VERTEX
8
1
10
8.421
20
4.494
0
VERTEX
8
1
10
8.449
20
4.515
0
VERTEX
8
1
10
8.463
20
4.511
0
VERTEX
8
1
10
8.467
20
4.473
0
VERTEX
8
1
10
8.420
20
4.410
0
VERTEX
8
1
10
8.411
20
4.380
0
VERTEX
8
1
10
8.424
20
4.351
0
VERTEX
8
1
10
8.437
20
4.321
0
VERTEX
8
1
10
8.424
20
4.303
0
VERTEX
8
1
10
8.391
20
4.298
0
VERTEX
8
1
10
8.347
20
4.296
0
VERTEX
8
1
10
8.333
20
4.279
0
VERTEX
8
1
10
8.330
20
4.231
0
VERTEX
8
1
10
8.307
20
4.180
0
VERTEX
8
1
10
8.257
20
4.140
0
VERTEX
8
1
10
8.181
20
4.090
0
VERTEX
8
1
10
8.108
20
4.028
0
VERTEX
8
1
10
8.098
20
4.017
0
VERTEX
8
1
10
8.059
20
3.956
0
VERTEX
8
1
10
8.058
20
3.930
0
VERTEX
8
1
10
8.076
20
3.919
0
VERTEX
8
1
10
8.102
20
3.921
0
VERTEX
8
1
10
8.168
20
3.963
0
VERTEX
8
1
10
8.219
20
3.994
0
VERTEX
8
1
10
8.257
20
4.007
0
VERTEX
8
1
10
8.301
20
4.009
0
VERTEX
8
1
10
8.325
20
4.025
0
VERTEX
8
1
10
8.330
20
4.030
0
VERTEX
8
1
10
8.372
20
4.067
0
VERTEX
8
1
10
8.400
20
4.082
0
VERTEX
8
1
10
8.411
20
4.074
0
VERTEX
8
1
10
8.399
20
4.013
0
VERTEX
8
1
10
8.344
20
3.954
0
VERTEX
8
1
10
8.299
20
3.901
0
VERTEX
8
1
10
8.279
20
3.855
0
VERTEX
8
1
10
8.262
20
3.758
0
VERTEX
8
1
10
8.243
20
3.695
0
VERTEX
8
1
10
8.210
20
3.641
0
VERTEX
8
1
10
8.184
20
3.608
0
VERTEX
8
1
10
8.167
20
3.596
0
VERTEX
8
1
10
8.161
20
3.602
0
VERTEX
8
1
10
8.167
20
3.628
0
VERTEX
8
1
10
8.189
20
3.675
0
VERTEX
8
1
10
8.203
20
3.713
0
VERTEX
8
1
10
8.207
20
3.776
0
VERTEX
8
1
10
8.194
20
3.810
0
VERTEX
8
1
10
8.170
20
3.821
0
VERTEX
8
1
10
8.125
20
3.795
0
VERTEX
8
1
10
8.081
20
3.725
0
VERTEX
8
1
10
8.057
20
3.675
0
VERTEX
8
1
10
8.037
20
3.646
0
VERTEX
8
1
10
8.028
20
3.616
0
VERTEX
8
1
10
8.038
20
3.600
0
VERTEX
8
1
10
8.087
20
3.618
0
VERTEX
8
1
10
8.097
20
3.614
0
VERTEX
8
1
10
8.086
20
3.579
0
VERTEX
8
1
10
8.016
20
3.492
0
VERTEX
8
1
10
7.988
20
3.461
0
VERTEX
8
1
10
7.970
20
3.423
0
VERTEX
8
1
10
7.977
20
3.395
0
VERTEX
8
1
10
8.000
20
3.384
0
VERTEX
8
1
10
8.038
20
3.392
0
VERTEX
8
1
10
8.106
20
3.437
0
VERTEX
8
1
10
8.129
20
3.447
0
VERTEX
8
1
10
8.138
20
3.435
0
VERTEX
8
1
10
8.145
20
3.413
0
VERTEX
8
1
10
8.164
20
3.392
0
VERTEX
8
1
10
8.184
20
3.396
0
VERTEX
8
1
10
8.203
20
3.422
0
VERTEX
8
1
10
8.212
20
3.444
0
VERTEX
8
1
10
8.225
20
3.454
0
VERTEX
8
1
10
8.249
20
3.447
0
VERTEX
8
1
10
8.276
20
3.454
0
VERTEX
8
1
10
8.308
20
3.489
0
VERTEX
8
1
10
8.356
20
3.569
0
VERTEX
8
1
10
8.414
20
3.674
0
VERTEX
8
1
10
8.441
20
3.715
0
VERTEX
8
1
10
8.473
20
3.737
0
VERTEX
8
1
10
8.490
20
3.731
0
VERTEX
8
1
10
8.494
20
3.707
0
VERTEX
8
1
10
8.478
20
3.671
0
VERTEX
8
1
10
8.334
20
3.456
0
VERTEX
8
1
10
8.281
20
3.389
0
VERTEX
8
1
10
8.211
20
3.322
0
VERTEX
8
1
10
8.188
20
3.273
0
VERTEX
8
1
10
8.149
20
3.193
0
VERTEX
8
1
10
8.117
20
3.145
0
VERTEX
8
1
10
8.114
20
3.108
0
VERTEX
8
1
10
8.126
20
3.060
0
VERTEX
8
1
10
8.135
20
3.013
0
VERTEX
8
1
10
8.121
20
3.008
0
VERTEX
8
1
10
8.067
20
3.022
0
VERTEX
8
1
10
8.029
20
3.017
0
VERTEX
8
1
10
8.011
20
2.999
0
VERTEX
8
1
10
8.006
20
2.947
0
VERTEX
8
1
10
8.000
20
2.932
0
VERTEX
8
1
10
7.982
20
2.936
0
VERTEX
8
1
10
7.871
20
2.980
0
VERTEX
8
1
10
7.760
20
3.011
0
VERTEX
8
1
10
7.705
20
3.041
0
VERTEX
8
1
10
7.672
20
3.064
0
VERTEX
8
1
10
7.507
20
3.176
0
VERTEX
8
1
10
7.470
20
3.204
0
VERTEX
8
1
10
7.457
20
3.216
0
VERTEX
8
1
10
7.467
20
3.240
0
VERTEX
8
1
10
7.548
20
3.321
0
VERTEX
8
1
10
7.566
20
3.355
0
VERTEX
8
1
10
7.559
20
3.378
0
VERTEX
8
1
10
7.515
20
3.374
0
VERTEX
8
1
10
7.443
20
3.321
0
VERTEX
8
1
10
7.396
20
3.283
0
VERTEX
8
1
10
7.376
20
3.274
0
VERTEX
8
1
10
7.362
20
3.281
0
VERTEX
8
1
10
7.328
20
3.307
0
VERTEX
8
1
10
7.224
20
3.402
0
VERTEX
8
1
10
7.176
20
3.448
0
VERTEX
8
1
10
7.155
20
3.469
0
VERTEX
8
1
10
7.116
20
3.506
0
VERTEX
8
1
10
7.098
20
3.531
0
VERTEX
8
1
10
7.105
20
3.550
0
VERTEX
8
1
10
7.164
20
3.604
0
VERTEX
8
1
10
7.268
20
3.690
0
VERTEX
8
1
10
7.362
20
3.750
0
VERTEX
8
1
10
7.455
20
3.794
0
VERTEX
8
1
10
7.492
20
3.812
0
VERTEX
8
1
10
7.567
20
3.853
0
VERTEX
8
1
10
7.634
20
3.901
0
VERTEX
8
1
10
7.659
20
3.931
0
VERTEX
8
1
10
7.657
20
3.954
0
VERTEX
8
1
10
7.630
20
3.959
0
VERTEX
8
1
10
7.565
20
3.929
0
VERTEX
8
1
10
7.541
20
3.914
0
VERTEX
8
1
10
7.362
20
3.831
0
VERTEX
8
1
10
7.251
20
3.779
0
VERTEX
8
1
10
7.150
20
3.719
0
VERTEX
8
1
10
7.106
20
3.687
0
VERTEX
8
1
10
7.060
20
3.650
0
VERTEX
8
1
10
7.028
20
3.622
0
VERTEX
8
1
10
7.003
20
3.613
0
VERTEX
8
1
10
6.976
20
3.626
0
VERTEX
8
1
10
6.920
20
3.662
0
VERTEX
8
1
10
6.903
20
3.685
0
VERTEX
8
1
10
6.912
20
3.704
0
VERTEX
8
1
10
6.971
20
3.752
0
VERTEX
8
1
10
7.099
20
3.838
0
VERTEX
8
1
10
7.226
20
3.898
0
VERTEX
8
1
10
7.449
20
4.018
0
VERTEX
8
1
10
7.867
20
4.332
0
VERTEX
8
1
10
8.041
20
4.443
0
VERTEX
8
1
10
8.174
20
4.536
0
VERTEX
8
1
10
8.280
20
4.629
0
VERTEX
8
1
10
8.348
20
4.683
0
VERTEX
8
1
10
8.401
20
4.707
  0
SEQEND
0
POLYLINE
8
1
6
CONTINUOUS
66
1
70
1
0
VERTEX
8
1
10
8.466
20
4.764
0
VERTEX
8
1
10
8.535
20
4.732
0
VERTEX
8
1
10
8.624
20
4.662
0
VERTEX
8
1
10
8.787
20
4.520
0
VERTEX
8
1
10
8.852
20
4.472
0
VERTEX
8
1
10
8.963
20
4.394
0
VERTEX
8
1
10
9.095
20
4.282
0
VERTEX
8
1
10
9.162
20
4.217
0
VERTEX
8
1
10
9.219
20
4.170
0
VERTEX
8
1
10
9.437
20
4.049
0
VERTEX
8
1
10
9.498
20
4.009
0
VERTEX
8
1
10
9.546
20
3.982
0
VERTEX
8
1
10
9.723
20
3.872
0
VERTEX
8
1
10
9.834
20
3.784
0
VERTEX
8
1
10
10.069
20
3.573
0
VERTEX
8
1
10
10.342
20
3.344
0
VERTEX
8
1
10
10.401
20
3.301
0
VERTEX
8
1
10
10.571
20
3.181
0
VERTEX
8
1
10
10.662
20
3.104
0
VERTEX
8
1
10
10.712
20
3.044
0
VERTEX
8
1
10
10.778
20
2.968
0
VERTEX
8
1
10
10.856
20
2.881
0
VERTEX
8
1
10
10.877
20
2.854
0
VERTEX
8
1
10
10.945
20
2.777
0
VERTEX
8
1
10
11.034
20
2.673
0
VERTEX
8
1
10
11.107
20
2.592
0
VERTEX
8
1
10
11.127
20
2.548
0
VERTEX
8
1
10
11.106
20
2.497
0
VERTEX
8
1
10
10.997
20
2.350
0
VERTEX
8
1
10
10.973
20
2.298
0
VERTEX
8
1
10
10.959
20
2.225
0
VERTEX
8
1
10
10.957
20
2.138
0
VERTEX
8
1
10
10.962
20
2.080
0
VERTEX
8
1
10
10.946
20
2.040
0
VERTEX
8
1
10
10.889
20
1.991
0
VERTEX
8
1
10
10.844
20
1.964
0
VERTEX
8
1
10
10.791
20
1.934
0
VERTEX
8
1
10
10.764
20
1.913
0
VERTEX
8
1
10
10.756
20
1.896
0
VERTEX
8
1
10
10.774
20
1.863
0
VERTEX
8
1
10
10.780
20
1.836
0
VERTEX
8
1
10
10.765
20
1.810
0
VERTEX
8
1
10
10.719
20
1.786
0
VERTEX
8
1
10
10.661
20
1.774
0
VERTEX
8
1
10
10.471
20
1.767
0
VERTEX
8
1
10
10.436
20
1.766
0
VERTEX
8
1
10
10.244
20
1.750
0
VERTEX
8
1
10
10.104
20
1.739
0
VERTEX
8
1
10
10.066
20
1.730
0
VERTEX
8
1
10
10.046
20
1.720
0
VERTEX
8
1
10
10.045
20
1.704
0
VERTEX
8
1
10
10.080
20
1.672
0
VERTEX
8
1
10
10.100
20
1.646
0
VERTEX
8
1
10
10.082
20
1.607
0
VERTEX
8
1
10
10.036
20
1.583
0
VERTEX
8
1
10
9.939
20
1.560
0
VERTEX
8
1
10
9.903
20
1.556
0
VERTEX
8
1
10
9.603
20
1.526
0
VERTEX
8
1
10
9.339
20
1.485
0
VERTEX
8
1
10
9.170
20
1.448
0
VERTEX
8
1
10
9.099
20
1.412
0
VERTEX
8
1
10
9.089
20
1.398
0
VERTEX
8
1
10
9.104
20
1.387
0
VERTEX
8
1
10
9.156
20
1.375
0
VERTEX
8
1
10
9.215
20
1.356
0
VERTEX
8
1
10
9.231
20
1.337
0
VERTEX
8
1
10
9.225
20
1.312
0
VERTEX
8
1
10
9.197
20
1.286
0
VERTEX
8
1
10
9.135
20
1.257
0
VERTEX
8
1
10
9.002
20
1.229
0
VERTEX
8
1
10
8.935
20
1.220
0
VERTEX
8
1
10
8.427
20
1.153
0
VERTEX
8
1
10
7.958
20
1.107
0
VERTEX
8
1
10
7.904
20
1.101
0
VERTEX
8
1
10
7.769
20
1.086
0
VERTEX
8
1
10
7.647
20
1.076
0
VERTEX
8
1
10
7.586
20
1.076
0
VERTEX
8
1
10
7.563
20
1.081
0
VERTEX
8
1
10
7.529
20
1.101
0
VERTEX
8
1
10
7.520
20
1.127
0
VERTEX
8
1
10
7.534
20
1.156
0
VERTEX
8
1
10
7.597
20
1.200
0
VERTEX
8
1
10
7.769
20
1.265
0
VERTEX
8
1
10
7.828
20
1.286
0
VERTEX
8
1
10
7.834
20
1.288
0
VERTEX
8
1
10
7.869
20
1.304
0
VERTEX
8
1
10
7.914
20
1.331
0
VERTEX
8
1
10
7.919
20
1.341
0
VERTEX
8
1
10
7.907
20
1.342
0
VERTEX
8
1
10
7.814
20
1.325
0
VERTEX
8
1
10
7.792
20
1.319
0
VERTEX
8
1
10
7.428
20
1.240
0
VERTEX
8
1
10
7.317
20
1.220
0
VERTEX
8
1
10
6.897
20
1.174
0
VERTEX
8
1
10
6.789
20
1.162
0
VERTEX
8
1
10
6.609
20
1.142
0
VERTEX
8
1
10
6.444
20
1.128
0
VERTEX
8
1
10
6.313
20
1.124
0
VERTEX
8
1
10
6.004
20
1.107
0
VERTEX
8
1
10
5.878
20
1.110
0
VERTEX
8
1
10
5.792
20
1.109
0
VERTEX
8
1
10
5.773
20
1.106
0
VERTEX
8
1
10
5.732
20
1.089
0
VERTEX
8
1
10
5.729
20
1.072
0
VERTEX
8
1
10
5.772
20
1.047
0
VERTEX
8
1
10
5.896
20
1.031
0
VERTEX
8
1
10
5.934
20
1.029
0
VERTEX
8
1
10
5.990
20
1.023
0
VERTEX
8
1
10
6.020
20
1.015
0
VERTEX
8
1
10
6.042
20
0.990
0
VERTEX
8
1
10
6.066
20
0.971
0
VERTEX
8
1
10
6.116
20
0.949
0
VERTEX
8
1
10
6.141
20
0.926
0
VERTEX
8
1
10
6.138
20
0.900
0
VERTEX
8
1
10
6.127
20
0.886
0
VERTEX
8
1
10
6.083
20
0.865
0
VERTEX
8
1
10
6.020
20
0.854
0
VERTEX
8
1
10
5.993
20
0.852
0
VERTEX
8
1
10
5.833
20
0.852
0
VERTEX
8
1
10
5.793
20
0.853
0
VERTEX
8
1
10
5.726
20
0.859
0
VERTEX
8
1
10
5.544
20
0.865
0
VERTEX
8
1
10
5.488
20
0.857
0
VERTEX
8
1
10
5.461
20
0.841
0
VERTEX
8
1
10
5.467
20
0.820
0
VERTEX
8
1
10
5.529
20
0.788
0
VERTEX
8
1
10
5.554
20
0.761
0
VERTEX
8
1
10
5.554
20
0.729
0
VERTEX
8
1
10
5.507
20
0.683
0
VERTEX
8
1
10
5.443
20
0.669
0
VERTEX
8
1
10
5.319
20
0.669
0
VERTEX
8
1
10
5.263
20
0.673
0
VERTEX
8
1
10
4.935
20
0.681
0
VERTEX
8
1
10
4.725
20
0.705
0
VERTEX
8
1
10
4.664
20
0.713
0
VERTEX
8
1
10
4.605
20
0.714
0
VERTEX
8
1
10
4.485
20
0.690
0
VERTEX
8
1
10
4.422
20
0.687
0
VERTEX
8
1
10
4.384
20
0.682
0
VERTEX
8
1
10
4.327
20
0.642
0
VERTEX
8
1
10
4.287
20
0.622
0
VERTEX
8
1
10
4.237
20
0.621
0
VERTEX
8
1
10
4.172
20
0.621
0
VERTEX
8
1
10
4.040
20
0.587
0
VERTEX
8
1
10
3.976
20
0.581
0
VERTEX
8
1
10
3.905
20
0.590
0
VERTEX
8
1
10
3.787
20
0.607
0
VERTEX
8
1
10
3.611
20
0.615
0
VERTEX
8
1
10
3.447
20
0.606
0
VERTEX
8
1
10
3.356
20
0.613
0
VERTEX
8
1
10
3.343
20
0.619
0
VERTEX
8
1
10
3.325
20
0.656
0
VERTEX
8
1
10
3.309
20
0.674
0
VERTEX
8
1
10
3.279
20
0.675
0
VERTEX
8
1
10
3.191
20
0.672
0
VERTEX
8
1
10
3.082
20
0.674
0
VERTEX
8
1
10
3.059
20
0.687
0
VERTEX
8
1
10
3.068
20
0.729
0
VERTEX
8
1
10
3.167
20
0.824
0
VERTEX
8
1
10
3.191
20
0.861
0
VERTEX
8
1
10
3.174
20
0.885
0
VERTEX
8
1
10
3.079
20
0.906
0
VERTEX
8
1
10
3.048
20
0.920
0
VERTEX
8
1
10
3.041
20
0.930
0
VERTEX
8
1
10
3.046
20
0.947
0
VERTEX
8
1
10
3.075
20
0.983
0
VERTEX
8
1
10
3.123
20
1.018
0
VERTEX
8
1
10
3.235
20
1.044
0
VERTEX
8
1
10
3.277
20
1.049
0
VERTEX
8
1
10
3.338
20
1.051
0
VERTEX
8
1
10
3.371
20
1.061
0
VERTEX
8
1
10
3.385
20
1.106
0
VERTEX
8
1
10
3.367
20
1.189
0
VERTEX
8
1
10
3.353
20
1.227
0
VERTEX
8
1
10
3.339
20
1.267
0
VERTEX
8
1
10
3.311
20
1.326
0
VERTEX
8
1
10
3.288
20
1.341
0
VERTEX
8
1
10
3.264
20
1.340
0
VERTEX
8
1
10
3.178
20
1.325
0
VERTEX
8
1
10
3.112
20
1.315
0
VERTEX
8
1
10
3.086
20
1.319
0
VERTEX
8
1
10
3.076
20
1.339
0
VERTEX
8
1
10
3.095
20
1.399
0
VERTEX
8
1
10
3.099
20
1.418
0
VERTEX
8
1
10
3.087
20
1.417
0
VERTEX
8
1
10
3.043
20
1.398
0
VERTEX
8
1
10
2.995
20
1.385
0
VERTEX
8
1
10
2.979
20
1.391
0
VERTEX
8
1
10
2.983
20
1.413
0
VERTEX
8
1
10
2.987
20
1.425
0
VERTEX
8
1
10
2.981
20
1.445
0
VERTEX
8
1
10
2.972
20
1.465
0
VERTEX
8
1
10
2.984
20
1.489
0
VERTEX
8
1
10
3.047
20
1.538
0
VERTEX
8
1
10
3.065
20
1.560
0
VERTEX
8
1
10
3.058
20
1.582
0
VERTEX
8
1
10
3.050
20
1.603
0
VERTEX
8
1
10
3.065
20
1.623
0
VERTEX
8
1
10
3.149
20
1.655
0
VERTEX
8
1
10
3.176
20
1.670
0
VERTEX
8
1
10
3.187
20
1.708
0
VERTEX
8
1
10
3.190
20
1.788
0
VERTEX
8
1
10
3.186
20
1.878
0
VERTEX
8
1
10
3.184
20
1.912
0
VERTEX
8
1
10
3.188
20
1.973
0
VERTEX
8
1
10
3.179
20
1.985
0
VERTEX
8
1
10
3.158
20
1.977
0
VERTEX
8
1
10
3.025
20
1.880
0
VERTEX
8
1
10
2.982
20
1.851
0
VERTEX
8
1
10
2.960
20
1.843
0
VERTEX
8
1
10
2.953
20
1.853
0
VERTEX
8
1
10
2.960
20
1.880
0
VERTEX
8
1
10
2.983
20
1.928
0
VERTEX
8
1
10
3.003
20
1.971
0
VERTEX
8
1
10
3.010
20
1.993
0
VERTEX
8
1
10
3.005
20
1.999
0
VERTEX
8
1
10
2.958
20
1.974
0
VERTEX
8
1
10
2.932
20
1.972
0
VERTEX
8
1
10
2.929
20
1.990
0
VERTEX
8
1
10
2.965
20
2.062
0
VERTEX
8
1
10
2.974
20
2.077
0
VERTEX
8
1
10
2.978
20
2.085
0
VERTEX
8
1
10
2.998
20
2.129
0
VERTEX
8
1
10
3.009
20
2.169
0
VERTEX
8
1
10
3.003
20
2.180
0
VERTEX
8
1
10
2.983
20
2.172
0
VERTEX
8
1
10
2.955
20
2.158
0
VERTEX
8
1
10
2.941
20
2.159
0
VERTEX
8
1
10
2.943
20
2.178
0
VERTEX
8
1
10
2.976
20
2.226
0
VERTEX
8
1
10
2.988
20
2.238
0
VERTEX
8
1
10
3.084
20
2.330
0
VERTEX
8
1
10
3.115
20
2.357
0
VERTEX
8
1
10
3.142
20
2.375
0
VERTEX
8
1
10
3.183
20
2.410
0
VERTEX
8
1
10
3.199
20
2.449
0
VERTEX
8
1
10
3.207
20
2.502
0
VERTEX
8
1
10
3.208
20
2.574
0
VERTEX
8
1
10
3.204
20
2.583
0
VERTEX
8
1
10
3.179
20
2.574
0
VERTEX
8
1
10
3.149
20
2.558
0
VERTEX
8
1
10
3.134
20
2.562
0
VERTEX
8
1
10
3.133
20
2.630
0
VERTEX
8
1
10
3.115
20
2.647
0
VERTEX
8
1
10
3.051
20
2.619
0
VERTEX
8
1
10
3.027
20
2.619
0
VERTEX
8
1
10
3.016
20
2.639
0
VERTEX
8
1
10
3.022
20
2.668
0
VERTEX
8
1
10
3.063
20
2.712
0
VERTEX
8
1
10
3.106
20
2.761
0
VERTEX
8
1
10
3.206
20
2.881
0
VERTEX
8
1
10
3.209
20
2.886
0
VERTEX
8
1
10
3.224
20
2.939
0
VERTEX
8
1
10
3.219
20
2.962
0
VERTEX
8
1
10
3.188
20
2.965
0
VERTEX
8
1
10
3.179
20
2.974
0
VERTEX
8
1
10
3.189
20
2.995
0
VERTEX
8
1
10
3.197
20
3.015
0
VERTEX
8
1
10
3.165
20
3.016
0
VERTEX
8
1
10
3.155
20
3.028
0
VERTEX
8
1
10
3.165
20
3.061
0
VERTEX
8
1
10
3.205
20
3.115
0
VERTEX
8
1
10
3.230
20
3.170
0
VERTEX
8
1
10
3.238
20
3.235
0
VERTEX
8
1
10
3.248
20
3.301
0
VERTEX
8
1
10
3.261
20
3.316
0
VERTEX
8
1
10
3.274
20
3.308
0
VERTEX
8
1
10
3.281
20
3.278
0
VERTEX
8
1
10
3.278
20
3.224
0
VERTEX
8
1
10
3.277
20
3.180
0
VERTEX
8
1
10
3.302
20
3.148
0
VERTEX
8
1
10
3.311
20
3.121
0
VERTEX
8
1
10
3.320
20
3.095
0
VERTEX
8
1
10
3.368
20
3.045
0
VERTEX
8
1
10
3.384
20
3.015
0
VERTEX
8
1
10
3.381
20
3.003
0
VERTEX
8
1
10
3.315
20
2.994
0
VERTEX
8
1
10
3.306
20
2.978
0
VERTEX
8
1
10
3.308
20
2.962
0
VERTEX
8
1
10
3.333
20
2.935
0
VERTEX
8
1
10
3.362
20
2.903
0
VERTEX
8
1
10
3.384
20
2.900
0
VERTEX
8
1
10
3.426
20
2.941
0
VERTEX
8
1
10
3.444
20
2.964
0
VERTEX
8
1
10
3.594
20
3.153
0
VERTEX
8
1
10
3.666
20
3.222
0
VERTEX
8
1
10
3.737
20
3.260
0
VERTEX
8
1
10
4.006
20
3.370
0
VERTEX
8
1
10
4.078
20
3.407
0
VERTEX
8
1
10
4.320
20
3.599
0
VERTEX
8
1
10
4.346
20
3.616
0
VERTEX
8
1
10
4.438
20
3.656
0
VERTEX
8
1
10
4.495
20
3.689
0
VERTEX
8
1
10
4.539
20
3.736
0
VERTEX
8
1
10
4.576
20
3.778
0
VERTEX
8
1
10
4.849
20
3.985
0
VERTEX
8
1
10
4.930
20
4.044
0
VERTEX
8
1
10
5.072
20
4.112
0
VERTEX
8
1
10
5.126
20
4.152
0
VERTEX
8
1
10
5.182
20
4.209
0
VERTEX
8
1
10
5.226
20
4.258
0
VERTEX
8
1
10
5.343
20
4.366
0
VERTEX
8
1
10
5.392
20
4.401
0
VERTEX
8
1
10
5.486
20
4.447
0
VERTEX
8
1
10
5.567
20
4.482
0
VERTEX
8
1
10
5.664
20
4.531
0
VERTEX
8
1
10
5.725
20
4.546
0
VERTEX
8
1
10
5.776
20
4.536
0
VERTEX
8
1
10
5.792
20
4.527
0
VERTEX
8
1
10
5.831
20
4.501
0
VERTEX
8
1
10
6.006
20
4.379
0
VERTEX
8
1
10
6.055
20
4.343
0
VERTEX
8
1
10
6.079
20
4.325
0
VERTEX
8
1
10
6.140
20
4.278
0
VERTEX
8
1
10
6.266
20
4.162
0
VERTEX
8
1
10
6.367
20
4.065
0
VERTEX
8
1
10
6.466
20
3.981
0
VERTEX
8
1
10
6.647
20
3.859
0
VERTEX
8
1
10
6.773
20
3.775
0
VERTEX
8
1
10
6.814
20
3.743
0
VERTEX
8
1
10
6.841
20
3.734
0
VERTEX
8
1
10
6.870
20
3.750
0
VERTEX
8
1
10
6.955
20
3.808
0
VERTEX
8
1
10
7.001
20
3.840
0
VERTEX
8
1
10
7.018
20
3.851
0
VERTEX
8
1
10
7.101
20
3.904
0
VERTEX
8
1
10
7.315
20
4.011
0
VERTEX
8
1
10
7.385
20
4.044
0
VERTEX
8
1
10
7.446
20
4.075
0
VERTEX
8
1
10
7.521
20
4.126
0
VERTEX
8
1
10
7.576
20
4.172
0
VERTEX
8
1
10
7.632
20
4.220
0
VERTEX
8
1
10
7.731
20
4.294
0
VERTEX
8
1
10
7.837
20
4.362
0
VERTEX
8
1
10
7.902
20
4.409
0
VERTEX
8
1
10
7.947
20
4.444
0
VERTEX
8
1
10
8.013
20
4.485
0
VERTEX
8
1
10
8.092
20
4.532
0
VERTEX
8
1
10
8.150
20
4.573
0
VERTEX
8
1
10
8.210
20
4.621
0
VERTEX
8
1
10
8.286
20
4.686
0
VERTEX
8
1
10
8.365
20
4.751
0
VERTEX
8
1
10
8.416
20
4.769
  0
SEQEND
  0
ENDSEC
  0
EOF
